Gametabs
Home
Tabs
Random

Main Theme

Average rating: No ratings

Composer:

Tabber:

Style:

Instrument:

Created: March 18, 2008 at 12:00 AM

            Title:     Game Theme
Game:      Cyber Stadium Series - Base Wars
Composer:  Magnum Matsuo, Pah Sumiyami
Year:      1991
Tabber:    goldsac
Notes:

4 strings; Standard tuning (EADG)

4/4 Time
    - if you use the midi to help you out, keep in mind that the machine
      can't groove the song at all. You basically have to know how the real
      song goes to understand the way the song swings.

_______________________________________________________________________________


Fast & Funky   bpm=130


A Section:

     S S E  E  S E  S E  S S E     S S E  E  S E  S E  S S E   
G||------------3----5-----------|------------3----5-----------|
D||--3-5---------------------3--|--3-5------------------------|
A||---------1----3----3--4-5----|---------1----3----3---------|
E||------3----------------------|------3---------------6-5-4--|


  S S E  E  S E  S E  S S E     S S E  E  S E  S E  S S E   
------------3----5-----------|------------3----5-----------|
--3-5---------------------3--|--3-5------------------------|
---------1----3----3--4-5----|---------1----3----3---------|
------3----------------------|------3---------------6-5-4--|


  S S E  E  S S S S E  S S E     S S E  E  S E  E  S S S S S  
------------3-----5-----------|------------3-------5---------|
--3-5----------------------3--|--3-5-------------------------|
---------1----3-3---3--4-5----|---------1----3--3------------|
------3-----------------------|------3-----------------6-5-4-|


  S S E  E  S S S S E  S S E     S S S S E  S E  S S S Q     
------------3-----5-----------|-------------3------5-5------|
--3-5----------------------3--|--3-5------------------------|
---------1----3-3---3--4-5----|----------1----3--3----------|
------3-----------------------|------3-3--------------------|


  S S E  E  S E  S S S S S E     S S E  E  S E  S S S S S E   
------------3----5------------|------------3----5------------|
--3-5----------------------3--|--3-5-------------------------|
---------1----3----3-3-4-5----|---------1----3----3-3--------|
------3-----------------------|------3----------------6-5-4--|


  S S E  E  S E  S S S S S E     S S E  E  S E  S S S S S E   
------------3----5------------|------------3----5------------|
--3-5----------------------3--|--3-5-------------------------|
---------1----3----3-3-4-5----|---------1----3----3-3--------|
------3-----------------------|------3----------------6-5-4--|


  S S E  E  S S S S E  S S E     S S E  E  S E  E  S S S S S  
------------3-----5-----------|------------3-------5---------|
--3-5----------------------3--|--3-5-------------------------|
---------1----3-3---3--4-5----|---------1----3--3------------|
------3-----------------------|------3-----------------6-5-4-|


  S S E  E  S S S S E  S S E     S S S S E  S E  S S S Q     
------------3-----5-----------|-------------3------5-5------|
--3-5----------------------3--|--3-5------------------------|
---------1----3-3---3--4-5----|----------1----3--3----------|
------3-----------------------|------3-3--------------------|


B Section:

   S S  S  E   S  S  S  S S  S  S  S  S  S  S     S S  S  E   S  S  S  S S  S S S S  S S  
----------------------------------------------|------------------------------------------|
--10---------------------------15-------------|--12------------------------10---9--------|
-----------------10-12------------------10-12-|-----------------10-12---------------12---|
-------10-13--13-------13---13----13-13-------|-------10-13--13-------13-----------------|


   S S  S  E   S  S  S  S S  S  S  S  S  S  S     S S  S  E   S  S  S  S  S  S  E  S  E   
----------------------------------------------|------------------------------------------|
--10---------------------------15-------------|--12----------------------15--------------|
-----------------10-12------------------10-12-|-----------------10-12----------15----17--|
-------10-13--13-------13---13----13-13-------|-------10-13--13-------13----13-----------|


  S S S E  S S S E  S S S S S S    S S S E  S S S E  S S S S S S  
----------------------5-----7---|--------------------------------|
--------------------------------|--7-----------------5---4-------|
-----------5-6-7-3--3---3-5---7-|-----------5-6-7------------7---|
--5---5-8-----------------------|------5-8--------8--------------|


  S S S E  E  S E  S E  E  S    S S S E  E  S E  S E  E  S    S S S E  E  S E  S E  E  S  
-----------------------------|-----------------------------|-----------------------------|
--------4--5--6-7------------|--------2--3--4-5------------|--------0--1--2-3------------|
--5---5--------------------5-|--3---3--------------------2-|--3---2--------------------2-|
-------------------5-7--8----|-------------------3-5--6----|-------------------1-3--4----|


  S S S S S S S S S S S S S S S S         
--------5-------------7---7-------|-----||
------------5-7-------------------|----*||
--3---3---------8-5-----------5-5-|----*||
----------------------------------|-----||




Duration Legend
---------------
W - whole
H - half
Q - quarter
E - 8th
S - 16th
T - 32nd
X - 64th
. - note dotted
|-n-|  - n-tuplets

        
Comments

No comments yet