Gametabs
Home
Tabs
Random

Title Screen Theme

Average rating: No ratings

Composer:

Tabber:

Style:

Instrument:

Created: October 15, 2019 at 12:00 AM

            e|-----------------------3--1----0-------------------0-----------------------
B|--0------0-3--------0-----3-----1-3-------1------1-------1--0--------------
G|--0----0---------0--------2---------------0----0---------------0--2--------   (x 2)
D|--------------------------0---------------------------------------0--------
A|------------------------------------------3--------------------------------
E|--3-------(3)-------------------------------------------------------------- 



e|------------------------------------------------------------
B|--------0-3-------0----------------------0-3----------------
G|--0---0--------------2---2-0-2-----0---0--------------------
D|---------------------0-----------------------------0--2---0-
A|------------------------------------------------------0-----
E|--3--------------------------------3------------------------


e|------------------------------------------------------------
B|--------0-3-------0----------------------0-3----------------
G|--0---0--------------2---2-0-2-----0---0--------------------
D|---------------------0-----------------------------0--2---4-
A|------------------------------------------------------0-----
E|--3--------------------------------3------------------------
        
Comments

No comments yet