Gametabs
Home
Tabs
Random

The Price of Freedom

Average rating: 4.625

24 ratings

Composer:

Tabber:

Style:

Instrument:

Created: April 04, 2008 at 12:00 AM

            The Price of Freedom     
~Crisis Core: Final Fantasy 7~
Composed by: Takeharu Ishimoto
Arranged by: Zelos
Difficulty: Not really that hard...you only have to try how to play this 
            with one guitar best since the original song has 5 guitars 
            and the violin. I already put 2 guitars into one, but there
            are still 5 guitars playing simultaneously. You may want to listen to
            the midi, GP5-file (in the tab-archive) or the original 
            song to get the idea...


(Thanks to Gitano for the chords)

For the original song -> http://www.youtube.com/watch?v=ICD-qQZyNpU





Guitar I (Clean)
(Throughout the whole song)

    Em         C                 G          D        Dsus/D

e|--0---0-0-0--0---0-0---0-0-0-0-3---3-3-3--2--2-2---3-2-2-0--|
B|--0---0-0-0--1---1-1---1-1-1-1-0---0-0-0--3--3-3---3-3-3-3--|
G|--0---0-0-0--0---0-0---0-0-0-0-0---0-0-0--2--2-2---2-2-2-2--|
D|--2---2-2-2--2---2-2---2-2-2-2-0---0-0-0--0--0-0---0-0-0-0--|
A|--2---2-2-2--3---3-3---3-3-3-3-2---2-2-2--------------------|
E|--0---0-0-0--------------------3---3-3-3--------------------|



Guitar II (Violin) 
(First verse, chorus)
    
e|--17-19-20---15---17-15---19--17-15-14---12--|
B|---------------------------------------------| 
G|---------------------------------------------|  x2  (chorus: x6)
D|---------------------------------------------|
A|---------------------------------------------|
E|---------------------------------------------|



Guitar III (Part 1) (Clean) 
(Verses after Violin, chorus [until Part 2])
    
e|---------------------------------------------|
B|--8-10---10/12-13--8---8-10---10/12--10-8-7--|
G|---------------------------------------------|  x4  (chorus: x2)
D|---------------------------------------------|
A|---------------------------------------------|
E|---------------------------------------------|



Guitar IV (Bridge) (Disortion) 
(Starts after Guitar III's Part 1)

e|-------|
B|-------|
G|--5-7--|  x1
D|--5-7--|
A|--3-5--|
E|-------|



Guitar IV (Chorus) (Disortion)
(Starts after the Bridge)

e|--------------------------------------|
B|--------------------------------------|
G|--9---9------------12---12------------|  x6
D|--9---9--10----10--12---12--12----12--|
A|--7---7--10----10--10---10--12----12--|
E|---------8-----8------------10----10--|



Guitar III (Chorus) (Part 2) (Disortion) 
(Starts after Guitar IV played the verse 2 times)

e|---------------------------------------------------------------|
B|---------------------------------------------------------------|
G|--------------12-14--------------------------12-14---------12b-|
D|--------12-14-------14---12------------12-14-------14---14-----|
A|--12-14--------------------------12-14-------------------------|
E|---------------------------------------------------------------|

(b = bend)


Guitar III (Bridge) (Disortion) 
(Let it ring out...)

e|------|
B|------|
G|------|  x1
D|--14--|
A|------|
E|------|



Guitar IV (Bridge) (Disortion) 
(Let it ring out...)

e|-----|
B|-----|
G|--9--|  x1
D|--9--|
A|--7--|
E|-----|




After chorus play Guitar II (Violin) 2 times, 
then repeat from Guitar III until end...




Guitar V (Solo) (Distortion) 
(Starts in the second chorus after Guitar III played the verse 2 times)

e|--10--10-10-10-10-10--7-8-7-----------------------------------------|
B|-----------------------------10--8--7---8-7-8/12--12--12--12-12-12--|
G|--------------------------------------------------------------------|
D|--------------------------------------------------------------------|
A|--------------------------------------------------------------------|
E|--------------------------------------------------------------------|


e|--10--10-10-10-10-10--8--7--7-8-7--------------------------------10~-|
B|-----------------------------------10--10-10-10-10-8---7-8--8--------|
G|---------------------------------------------------------------------|
D|---------------------------------------------------------------------|
A|---------------------------------------------------------------------|
E|---------------------------------------------------------------------|



Outro: Only Guitar I, play it 2 times and let the 
last chord ring out...




Hope you enjoy the best song of Crisis Core. :)

        
Comments

@Yggdrasil (April 04, 2008 at 9:36 AM)

Beautiful song and good tab


@Bobert (April 10, 2008 at 5:48 PM)

I love you.


@FF CRAZY (April 15, 2008 at 12:08 AM)

thx man


@Zelos (April 18, 2008 at 1:51 PM)

I just changed some powerchords... I forgot to change them in the .txt-file after making the change in Guitar Pro, so the two bridges were wrong. Sorry. :)


@JohnCafeeh (April 24, 2008 at 12:39 PM)

I've done the GP5-File if you want. I'll give you at yostruill@hotmail.fr


@JohnCafeeh (April 24, 2008 at 12:42 PM)


@Zelos (April 24, 2008 at 2:03 PM)

Uhm, what did you do? That's my file.


@JohnCafeeh (April 25, 2008 at 10:45 AM)

Sure, I may be badly expressed. I'm not english you know.I've just trying to do the "solo" on your file. credits are to you


@Zelos (April 25, 2008 at 10:14 PM)

Oh, that's what you meant. I'm really sorry, but I don't really see the point in doing the solo again since I already have it in the file. :O


@darkness1585 (May 02, 2008 at 1:37 PM)

hi uh...im pretty new to this and i was wondering if you have a strum pattern to this?