Gametabs
Home
Tabs
Random

The Burdened

Average rating: 5.000

1 ratings

Composer:

Tabber:

Style:

Instrument:

Created: August 19, 2009 at 12:00 AM

            Title: The Burdened
Game: Final Fantasy VII : Crisis Core
Composer: Takeharu Ishimoto
Tabbed by: Bobby Taylor
Date: 08/19/2009


The Violin part

   E E E E Q E E E Q     E E E E Q E E E Q     E H E E Q H   H E E Q.Q.
e-----------------------------------------------------------------------------------------
B--5-5-5-3-5---0-1-0-----5-5-5-3-5---0-1-0-----7-8-7-8-7-3---8-7-8-7-3--------------------
G------------2---------------------2------------------------------------------------------
D-----------------------------------------------------------------------------------------
A-----------------------------------------------------------------------------------------
E-----------------------------------------------------------------------------------------

   H E E  Q H     H E  S  H.    Q. Q. Q. Q.    X  X  X  Q Q. Q. Q.   H E E Q H
e------10-8-7-------14-14-10----12-14-15-------12h14p12-L-14-15-14------------------------
B--8-L------------8----------------------15--------------------------8-7-8-8-3------------
G-----------------------------------------------------------------------------------------
D-----------------------------------------------------------------------------------------
A-----------------------------------------------------------------------------------------
E-----------------------------------------------------------------------------------------

   E E Q E E Q. Q.    H E E E Q H     E E E E E E Q. Q.
e----------------------------------------------------14-----------------------------------
B--8-7-8-7-8-10-8-----8-8-7-8-8-3-----8-7-8-8-7-8-12--------------------------------------
G-----------------------------------------------------------------------------------------
D-----------------------------------------------------------------------------------------
A-----------------------------------------------------------------------------------------
E-----------------------------------------------------------------------------------------

   E  E  E  E  E  E  Q  H      E  E  E  E  E  E  Q  Q  Q  Q  H.
e--15-14-15-15-14-15-15-10-----15-14-15-15-14-15-19-17-15-14-12---------------------------
B-----------------------------------------------------------------------------------------
G-----------------------------------------------------------------------------------------
D-----------------------------------------------------------------------------------------
A-----------------------------------------------------------------------------------------
E-----------------------------------------------------------------------------------------


Duration Legend
---------------
W - whole
H - half
Q - quarter
E - 8th
S - 16th
T - 32nd
X - 64th
. - dotted note

Tablature Legend
----------------
L - tied note

        
Comments

No comments yet