Gametabs
Home
Tabs
Random

Burden of Truth

Average rating: No ratings

Composer:

Tabber:

Style:

Instrument:

Created: May 29, 2015 at 12:00 AM

            E|3-2-3---3-2-3-3--
B|----------------3
G|-----------------

E|3-2-3---3-2-3-5------------
B|----------------5-3-2---2-3
G|----------------------2----

E|3-2-3---3-2-3-3--
B|----------------3
G|-----------------

E|3-2-3---3-2-3-7-5-3-2
B|---------------------
G|---------------------

Rinse and Repeat
        
Comments

No comments yet