Gametabs
Home
Tabs
Random

Title Screen

Average rating: No ratings

Composer:

Tabber:

Style:

Instrument:

Created: May 10, 2012 at 12:00 AM

                                 Crazy Comets - Title Screen BASS TAB
                           Composed by Rob Hubbard

                   Tabbed by Auriplane  ([email protected])


Six-string bass, standard tuning.  Rest for four measures at the beginning.



        Part A

   W        W        W        W        W        W        W        H   H
C |--------|--------|--------|--------|--------|--------|--------|--------|
G |--------|--------|--------|--------|--------|--------|--------|--------|
D |3-------|--------|--------|--------|--------|--------|--------|--------|
A |--------|6-------|3-------|--------|5-------|3-------|--------|--------|
E |--------|--------|--------|5-------|--------|--------|3-------|5---6---|
B |--------|--------|--------|--------|--------|--------|--------|--------|


   W        W        W        W        W        W        W        W
C |--------|--------|--------|--------|--------|--------|--------|--------|
G |--------|--------|--------|--------|--------|--------|--------|--------|
D |3-------|--------|--------|--------|--------|--------|--------|--------|
A |--------|6-------|3-------|--------|5-------|3-------|--------|--------|
E |--------|--------|--------|5-------|--------|--------|3-------|5-------|
B |--------|--------|--------|--------|--------|--------|--------|--------|


   W                                S S S S E   S S S S S E   S S S
C |--------------------------------|--------------------------------|
G |--------------------------------|--------------------------------|
D |--------------------------------|5-5-5-5-5---5-5-----------------|
A |--------------------------------|----------------3-3-3-3---3-3-3-|
E |--------------------------------|--------------------------------|
B |--------------------------------|--------------------------------|


        Part B

   E.    S S S E   E.    S S S S S  E.    S E   E   S S S S S S S S
C |--------------------------------|--------------------5-------7---|
G |------7---------------7---7-----|------7-------------------------|
D |--------------------------------|------------2---3-3---3---5---5-| x10
A |5---------3-4---5-----------3-4-|5-------------------------------|
E |--------------------------------|--------------------------------|
B |--------------------------------|--------------------------------|


        Part C

   E.    S S S E   E.    S S S S S  E.    S E   E   S S S S S S S S
C |--------------------------------|------5-------------5-------7---|
G |------7---------------7---7-----|--------------------------------|
D |--------------------------------|3-----------2---3-3---3---5---5-|
A |5---------3-4---5-----------5-7-|--------------------------------|
E |--------------------------------|--------------------------------|
B |--------------------------------|--------------------------------|


   E.    S S S E   E.    S S S S S  E.    S S S E   E.    S S S S S
C |--------------------------------|--------------------------------|
G |--------------------------7-----|--------------------------7-----|
D |------7---------------7-----5-7-|------7---------------7-----5-7-|
A |--------------------------------|--------------------------------|
E |5---------3-4---5---------------|5---------3-4---5---------------|
B |--------------------------------|--------------------------------|


   E.    S S S E   E.    S S S S S  E.    S E   E   S S S S S S S S
C |--------------------------------|------5-------------5-------7---|
G |------7---------------7---7-----|--------------------------------|
D |--------------------------------|3-----------2---3-3---3---5---5-|
A |5---------3-4---5-----------5-7-|--------------------------------|
E |--------------------------------|--------------------------------|
B |--------------------------------|--------------------------------|


   E.    S S S E   E.    S S S S S  S S S S E   S S S S S E   S S S
C |--------------------------------|--------------------------------|
G |--------------------------7-----|--------------------------------|
D |------7---------------7-----5-7-|5-5-5-5-5---5-5-----------------|
A |--------------------------------|--------------------------------|
E |5---------3-4---5---------------|----------------8-8-8-8---8-8-8-|
B |--------------------------------|--------------------------------|


        Part D

   E.    S S S E   E.    S S S S S  E.    S E   E   S S S S S S S S
C |--------------------------------|--------------------5-------7---|
G |------7---------------7---7-----|------7-------------------------|
D |--------------------------------|------------2---3-3---3---5---5-| x4
A |5---------3-4---5-----------3-4-|5-------------------------------|
E |--------------------------------|--------------------------------|
B |--------------------------------|--------------------------------|


   S S S S E   S S H                S S S S E   S S H
C |--------------------------------|--------------------------------|
G |--------------------------------|--------------------------------|
D |------------5-------------------|--------------------------------|
A |5-5-5-5-8-----8-----------------|------------5-------------------|
E |--------------------------------|5-5-5-5-8-----8-----------------|
B |--------------------------------|--------------------------------|


   S S S S E   S S H                S S E   S S E   S S E   S S E
C |--------------------------------|--------------------------------|
G |--------------------------------|----7-------9-------10------11--|
D |------------5-------------------|--------------------------------|
A |5-5-5-5-8-----8-----------------|5-5-----7-7-----8-8-----9-9-----|
E |--------------------------------|--------------------------------|
B |--------------------------------|--------------------------------|


        Part E

   E.    S S S E   S S E   S S S S  E.    S S S E   S S E   S S S S
C |--------------------------------|--------------------------10--9-|
G |--------------------------------|--------------------------------|
D |--------------------------8---7-|------10----------10--------7---| x6
A |------10----------10------------|----------6-8-------------------|
E |----------6-8---------------5---|8---------------8---8-----------|
B |8---------------8---8-----------|--------------------------------|


   E   E   E   S E   E   E   S S S  E   E   E   S E   E   E   S S S
C |7---7-------7-------------------|--------------------------------|
G |--------10----9---9---7---7-----|--------------------------------|
D |----------------------------8-9-|10--10--8--10-7---7---5---5-----|
A |--------------------------------|--------------------------------|
E |--------------------------------|----------------------------3-4-|
B |--------------------------------|--------------------------------|


   W                                E   E   S S S S Q       Q
C |--------------------------------|--------------------------------|
G |--------------------------------|--------------------------------|
D |--------------------------------|----7-----7-L-------------------|
A |--------------------------------|--------------------------------|
E |5/17----------------------------|----------------5---------------|
B |--------------------------------|--------------------------------|


        Part F

   E.    S S S E   E.    S S S S S  E.    S E   E   S S S S S S S S
C |--------------------------------|------5-------------5-------7---| \
G |------7---------------7---7-----|--------------------------------|  \
D |--------------------------------|3-----------2---3-3---3---5---5-|   |
A |5---------3-4---5-----------5-7-|--------------------------------|   |
E |--------------------------------|--------------------------------|   |
B |--------------------------------|--------------------------------|   |
                                                                        |
                                                                        | x4
   E.    S S S E   E.    S S S S S  E.    S S S E   E.    S S S S S     |
C |--------------------------------|--------------------------------|   |
G |--------------------------7-----|--------------------------7-----|   |
D |------7---------------7-----5-7-|------7---------------7-----5-7-|   |
A |--------------------------------|--------------------------------|   |
E |5---------3-4---5---------------|5---------3-4---5---------------|  /
B |--------------------------------|--------------------------------| /


        Part G

    Rest for four measures.

   S S S S E   S S H                W        S S S S E   S S H                W
C |--------------------------------|--------|--------------------------------|--------|
G |--------------------------------|--------|--------------------------------|--------|
D |------------5-------------------|--------|--------------------------------|--------|
A |5-5-5-5-8-----8-----------------|--------|------------5-------------------|--------|
E |--------------------------------|--------|5-5-5-5-8-----8-----------------|--------|
B |--------------------------------|--------|--------------------------------|--------|


   S S S S E   S S H                W        S S S S E   S S H                S S S S E   S S S S S E   S S S
C |--------------------------------|--------|--------------------------------|--------------------------------|
G |--------------------------------|--------|--------------------------------|--------------------------------|
D |------------5-------------------|--------|--------------------------------|5-5-5-5-5---5-5-----------------|
A |5-5-5-5-8-----8-----------------|--------|------------5-------------------|--------------------------------|
E |--------------------------------|--------|5-5-5-5-8-----8-----------------|----------------8-8-8-8---8-8-8-|
B |--------------------------------|--------|--------------------------------|--------------------------------|


        Part H

   E.    S S S E   S S E   S S S S  E.    S S S E   S S E   S S S S
C |--------------------------------|--------------------------10--9-|
G |--------------------------------|--------------------------------|
D |--------------------------8---7-|------10----------10--------7---| x2
A |------10----------10------------|----------6-8-------------------|
E |----------6-8---------------5---|8---------------8---8-----------|
B |8---------------8---8-----------|--------------------------------|


   E   E   E   S E   E   E   S S S  E   E   E   S E   E   E   S S S
C |7---7-------7-------------------|--------------------------------|
G |--------10----9---9---7---7-----|--------------------------------|
D |----------------------------8-9-|10--10--8--10-7---7---5---5-----|
A |--------------------------------|--------------------------------|
E |--------------------------------|----------------------------3-4-|
B |--------------------------------|--------------------------------|


   W                                E   E   S S S S Q       Q
C |--------------------------------|--------------------------------|
G |--------------------------------|--------------------------------|
D |--------------------------------|----7-----7-L-------------------|
A |--------------------------------|--------------------------------|
E |5/17----------------------------|----------------5---------------|
B |--------------------------------|--------------------------------|


        Part I

   E.    S S S E   E.    S S S S S  E.    S E   E   S S S S S S S S
C |--------------------------------|------5-------------5-------7---| \
G |------7---------------7---7-----|--------------------------------|  \
D |--------------------------------|3-----------2---3-3---3---5---5-|   |
A |5---------3-4---5-----------5-7-|--------------------------------|   |
E |--------------------------------|--------------------------------|   |
B |--------------------------------|--------------------------------|   |
                                                                        |
                                                                        | x5
   E.    S S S E   E.    S S S S S  E.    S S S E   E.    S S S S S     |
C |--------------------------------|--------------------------------|   |
G |--------------------------7-----|--------------------------7-----|   |
D |------7---------------7-----5-7-|------7---------------7-----5-7-|   |
A |--------------------------------|--------------------------------|   |
E |5---------3-4---5---------------|5---------3-4---5---------------|  /
B |--------------------------------|--------------------------------| /


   E.    S S S E   E.    S S S S S  E.    S S S E   E.    S S S S S
C |--------------------------------|--------------------------------|
G |--------------------------7-----|--------------------------7-----|
D |------7---------------7-----5-7-|------7---------------7-----5-7-|
A |--------------------------------|--------------------------------|
E |5---------3-4---5---------------|5---------3-4---5---------------|
B |--------------------------------|--------------------------------|

        Outro

Rest for eight measures, then repeat to the beginning.
(So, a total of 12 measures before the bass comes back in.)


        
Comments

@auriplane (May 10, 2012 at 8:07 PM)

I guess those slides should be up to 18, technically, but meh.