Gametabs
Home
Tabs
Random

Main Theme

Average rating: 4.750

4 ratings

Composer:

Tabber:

Style:

Instrument:

Created: February 03, 2018 at 12:00 AM

            Game: Crash Bandicoot 
Song: Main Theme
Instrument: Guitar
Composer: Josh Mancell
Tabber: John Morse (Lord_Macdog)
Date Made: 2/2/2018

e------------------------------------------------------------------------
B------------------------------------------------------------------------
G--------------5--3-----------------------------5--3---------------------
D--------3--5--------5---3-4-5-4-5--------3--5--------5---3-4-5-4-5------
A--3--3----------------------------3--3----------------------------------
E------------------------------------------------------------------------

e------------------------------------------------------------------------
B------------------------------------------------------------------------
G------------------------------------------------------------------------
D--3--3---3-5-5-5---3-3---3-5-3------------------------------------------
A------------------------------------------------------------------------
E------------------------------------------------------------------------

e------------------------------------------------------------------------
B------------------------------------------------------------------------
G--------------5--3-----------------------------5--3---------------------
D--------3--5--------5---3-4-5-4-5--------3--5--------5---3-4-5-4-5------
A--3--3----------------------------3--3----------------------------------
E------------------------------------------------------------------------

e------------------------------------------------------------------------
B------------------------------------------------------------------------
G---------------3--3----3-----7--7----5--7--5----------------------------
D-------------5-------5-----5-------8----------8--5--5--5-8--------------
A--3--3---3--------------------------------------------------------------
E-------6----------------------------------------------------------------

e------------------------------------------------------------------------
B------------------------------------------8--7--6-----------------------
G--7--7-----5----7---5------5------5----------------8--------------------
D-------8---------------8------------------------------------------------
A------------------------------------------------------------------------
E------------------------------------------------------------------------

e------------------------------------------------------------------------
B------------------------------------------------------------------------
G--7--7----5--7--5-------------------------------------------------------
D-------8----------8--5--5--5-8------------------------------------------
A------------------------------------------------------------------------
E------------------------------------------------------------------------

e------------------------------------------------------------------------
B------------------------------------------8--7--6-----------------------
G--7--7-----5----7---5------5------5----------------8--------------------
D-------8---------------8------------------------------------------------
A------------------------------------------------------------------------
E------------------------------------------------------------------------

e------------------------------------------------------------------------
B--------------------------------------------------5--4---3--------------
G--------------5--3-----------------------------3-----------5-3----------
D--------3--5--------5---3-4-5-4-5-----------3------------------5--------
A--3--3-----------------------------------6-----------------------6------
E----------------------------------6--6----------------------------------


                            Repeat from beginning
        
Comments

No comments yet