Gametabs
Home
Tabs
Random

Piano Black

Average rating: No ratings

Composer:

Tabber:

Style:

Instrument:

Created: June 07, 2012 at 12:00 AM

                                              Piano Black                                   
                                  Yoko Kanno
                          [Full Band Transcription]

                                                         Tabbed by: Hakoria

Anime: Cowboy Bebop
OST: Cowboy Bebop OST 1 (1998) and others
Composer: Yoko Kanno

The tenor sax in C can be played in three ways on guitar:
1. One octave higher with a six string guitar, standard tuning.
[ctrl + f: .1]
2. Standard octave with a seven string guitar, BbEADGBe
(B would render some parts too complex at the tempo). [ctrl + f : .2 ]
3. Standard octave by detuning your 6 string guitar to A#EADGB.
Use the #2 version in this case, as the e string is never used there.

I don't have a 7-strings guitar, so there can be easier ways to play it
placement-wise. I simply imagine that playing on the Bb (B in standard)
low string around frets 12+ is unpractical:
this is a 240bpm=1 quarter note 'jazz waltz' (3/4) tempo,
but it's up to you.

The bass is in standard tuning, 4-strings. 
Made from scratch so ended up getting lazy with the drums after sax enters. (for the GP5 file)
Enjoy.

3/4 tempo, Jazz Waltz ; 1 quarter note = 240bpm

.1> octave higher Tenor Sax (in C)

Start at: 0:35
  H.              H.              H.               H.            
e ||---------------|---------------|----------------|
B ||---------------|---------------|----------------|
G ||---------------|---------------|----------------|
D ||---------------|---------------|----------------|
A ||---------------|---------------|--10------------|
E ||---------------|--7------------|----------------|

  H         Q       H.              H.              H.            
-----------------|---------------|---------------|---------------|
-----------------|---------------|---------------|---------------|
-----------------|---------------|---------------|---------------|
-----------------|---------------|---------------|---------------|
--9\-------------|---------------|---------------|---------------|
-----------------|---------------|---------------|---------------|

  H.              E  E  E  E  E  E     H.              H.            
---------------|--------------------|---------------|---------------|
---------------|--------0--0--2--4--|---------------|---------------|
---------------|-----3--------------|---------------|---------------|
---------------|--------------------|---------------|---------------|
---------------|--------------------|---------------|---------------|
---------------|--------------------|---------------|---------------|

  Q     Q       Q         H.               H.            
----------------------|-----------------|---------------|
-------12s~----15~----|---L\------------|---------------|
----------------------|-----------------|---------------|
----------------------|-----------------|---------------|
----------------------|-----------------|---------------|
----------------------|-----------------|---------------|
        >                                                                 
        |---3---|                                                         
  Q     E   E   E  E  E   
-------------------------|
-------12--10------------|
---------------11--------|
-------------------9-----|
-------------------------|
-------------------------|


|Resume at 0:54
   E  E  E  E  E  E     E  E  E  E  Q     
|-----5--7-----------|-------------------|
|-----------8--7--5--|-------------------|
|--------------------|-----7--4-----4----|
|--------------------|-----------7-------|
|--------------------|-------------------|
|--------------------|-------------------|

  H.              H.              H.              H.              H.            
---------------|---------------|---------------|---------------|---------------|
---------------|---------------|---------------|---------------|---------------|
---------------|---------------|---------------|---------------|---------------|
---------------|---------------|---------------|---------------|---------------|
---------------|---------------|---------------|---------------|---------------|
---------------|---------------|---------------|---------------|---------------|

  Q    Q    E  E     E  E  Q    Q       Q      H         
------------------|------------------|------------------|
---------------8--|------------------|------------------|
------------------|-----0------------|------------------|
------------------|-------------4----|--5s~----9--------|
------------------|--------7---------|------------------|
------------------|------------------|------------------|


|Resume at: 1:05
  Q    E  E  E  E     Q    Q    Q       Q    E  Q    E   
----------9--6-----|-----------------|------------------|
-------9--------7--|-----------------|----------3----3--|
-------------------|--7--------------|------------------|
-------------------|-----------------|------------------|
-------------------|-----------------|------------------|
-------------------|-----------------|------------------|

  E  E  E  Q    E     Q    Q    Q       H.              H.            
--5--5-------------|-----------------|---------------|---------------|
-----------3-------|-----------------|---------------|---------------|
----------------2--|-----------------|---------------|---------------|
-------------------|--3--------------|---------------|---------------|
-------------------|-----------------|---------------|---------------|
-------------------|-----------------|---------------|---------------|
                            >                                               
                                          |----3----|                       
  H.              Q    Q    E  E     Q    Q    Q    Q       Q    Q    Q     
---------------|------------------|----------------------|------------6----|
---------------|------------------|----------------------|--6----7---------|
---------------|------------0-----|-----------------6----|-----------------|
---------------|---------------0--|------------8---------|-----------------|
---------------|------------------|--6----8--------------|-----------------|
---------------|------------------|----------------------|-----------------|

  Q    S S S S S S S S    H        Q       H.              H.            
--6----L-------6-------|--6-------------|---------------|---------------|
---------9-7-6---9-7-6-|----------------|---------------|---------------|
-----------------------|----------------|---------------|---------------|
-----------------------|----------------|---------------|---------------|
-----------------------|----------------|---------------|---------------|
-----------------------|----------------|---------------|---------------|
                                        >                    
  H.              Q    Q     E   E      E   Q     E  E   E   
---------------|--------------------|-----------------------|
---------------|------------11--11--|--11--11----11-----11--|
---------------|--------------------|-----------------------|
---------------|--------------------|-----------------------|
---------------|--------------------|-----------------------|
---------------|--------------------|-----------------------|
   >                >             >       >          >       >       >          
                                                                     |---3--|   
   E   Q     E  E   E     E   E   E   E   E   E      E   E   E   E   E  E   E   
-----------------------|-------------------------|-----------------------------|
--11--11----11-----11--|--L--11--11--11--11--11--|--11--11--11--11--11--9------|
-----------------------|-------------------------|-------------------------10--|
-----------------------|-------------------------|-----------------------------|
-----------------------|-------------------------|-----------------------------|
-----------------------|-------------------------|-----------------------------|
         >       >                                   >                 
                            |---3--|                                   
   Q     E   E   E   E      E  E   E   Q.      E     E  E   Q    Q     
------------------------|-------------------------|--9--8-------------|
--11----11--11--11--11--|--11--9------11------11--|--------11---------|
------------------------|---------10--------------|-------------------|
------------------------|-------------------------|-------------------|
------------------------|-------------------------|-------------------|
------------------------|-------------------------|-------------------|
                  >           >              >              >                  
  H.              E  E  E  E  E  E     E  E  E  E  E  E     E  E  E  E  E  E   
---------------|--------------------|--------------------|--------------------|
---------------|--9--9--7-----9--9--|--7-----9--9--7-----|--6--7--6-----------|
---------------|-----------8--------|-----8-----------8--|-----------8--6-----|
---------------|--------------------|--------------------|-----------------8--|
---------------|--------------------|--------------------|--------------------|
---------------|--------------------|--------------------|--------------------|
        >                                                        
                                               |-----3-----|     
  E  E  E  E  Q       Q    E  E  E  E     Q    Q     Q     Q     
-------------------|-------------------|------------------------|
--------6----------|-------------------|------------------------|
-----------8-------|-------------------|-------8----10----11----|
-----6-------------|----------------8--|--9---------------------|
--9----------------|----------8--9-----|------------------------|
-------------------|-------------------|------------------------|

  E   Q.     E  S  S     E  S  S  H           E  S  S  Q.     E   
---------------------|---------------------|---------------------|
--9--11------L--9----|--11--9----11--------|--L--9---------------|
------------------10-|--------10-----------|-------10---------8--|
---------------------|---------------------|----------11---------|
---------------------|---------------------|---------------------|
---------------------|---------------------|---------------------|
                                                 >                        
  Q    Q    Q       H.              Q    Q    E  E     E  E  E  E  E  E   
-----------------|---------------|------------------|--------------------|
-----------------|---------------|------------------|--------------------|
--L--------------|---------------|------------------|--------------------|
-----------------|---------------|------------------|--------------------|
-----------------|---------------|---------------9--|-----------6--8--8--|
-----------------|---------------|------------------|--6--7--9-----------|
                       >          >                                             
  E  E  E  E  E  E     E  Q    E  S S S S    H        Q       S S S S H         
--------------------|---------------------|----------------|-------------------|
--------------------|---------------------|--6-------------|--6-7-6------------|
--------------------|-----------------5-8-|----------------|--------8-7--------|
--------------------|---------------6-----|----------------|-------------------|
-----8-----8-----8--|--8--8----8--8-------|----------------|-------------------|
--------------------|---------------------|----------------|-------------------|

  H.               H.              H         Q       H.            
---------------|----------------|-----------------|---------------|
---------------|----------------|-----------------|---------------|
---------------|----------------|-----------------|---------------|
---------------|----------------|-----------------|---------------|
---------------|--10------------|--9\-------------|---------------|
--7------------|----------------|-----------------|---------------|

  H.              H.              H.              E  E  E  E  E  E   
---------------|---------------|---------------|--------------------|
---------------|---------------|---------------|-----0--------------|
---------------|---------------|---------------|--------0--1--2--3--|
---------------|---------------|---------------|--------------------|
---------------|---------------|---------------|--------------------|
---------------|---------------|---------------|--------------------|
                       >     >                               
  E  E  E  E  E  E     E  E  E  E  Q       Q    E  E  E  E   
--------------0--2--|--4--5--5--0-------|----------------8--|
--0--2--3--4--------|-------------------|-------------7-----|
--------------------|-------------------|----------9--------|
--------------------|-------------------|-------------------|
--------------------|-------------------|-------------------|
--------------------|-------------------|-------------------|

  H        E   S S    H.              H.              H.            
--7--------L-------|---------------|---------------|---------------|
--------------10-7-|---------------|---------------|---------------|
-------------------|--8------------|--9------------|---------------|
-------------------|---------------|---------------|---------------|
-------------------|---------------|---------------|---------------|
-------------------|---------------|---------------|---------------|

  H.              Q     Q       Q        Q      Q      Q       Q    Q    Q     
---------------|---------------------|----------------------|-----------------|
---------------|---------------------|----------------------|-----------------|
---------------|-------17s~----14----|----------------------|-----------------|
---------------|---------------------|--13s~----4s~----1----|--4--------------|
---------------|---------------------|----------------------|-----------------|
---------------|---------------------|----------------------|-----------------|
                             >                                               
  H.              E   S S E  E  E  E     E  E  E  E  Q       Q    Q    Q     
---------------|----------------------|-------------------|-----------------|
---------------|-------------8--7-----|-------------------|-----------------|
---------------|----------7--------9--|--7--5-------------|-----------------|
---------------|--------9-------------|--------9--5--7----|--L--------------|
---------------|-----10---------------|-------------------|-----------------|
---------------|----------------------|-------------------|-----------------|


|Resume at: 2:04
                                       >                                
  Q    E  E  E  E     E  E  E  E  Q     
-------6-----------|-------------------|
----------9--7-----|-------------------|
----------------8--|--7--6--7--8-------|
-------------------|-------------------|
-------------------|-------------------|
-------------------|-------------------|

  H.              H.              H.              E   E  E  E  E  E   
---------------|---------------|---------------|---------------8--8--|
---------------|---------------|---------------|---------------------|
---------------|---------------|---------------|------------8--------|
---------------|---------------|---------------|-----10--------------|
---------------|---------------|---------------|---------------------|
---------------|---------------|---------------|---------------------|

  E   E   E   E  Q       Q    Q    Q       Q     Q       Q     
--8-------------------|--8--------------|---------------------|
-----11--10--11--L----|-----------------|-------10s~----13----|
----------------------|-----------------|---------------------|
----------------------|-----------------|---------------------|
----------------------|-----------------|---------------------|
----------------------|-----------------|---------------------|

   Q    Q    Q       H.              H.              H.            
------------------|---------------|---------------|---------------|
------------------|---------------|---------------|---------------|
------------------|---------------|---------------|---------------|
--12--------------|---------------|---------------|---------------|
------------------|---------------|---------------|---------------|
------------------|---------------|---------------|---------------|
                             >                                                 
  H.              Q    Q     E   E      Q     Q     Q        Q     Q     Q     
---------------|--------------------|--------------------|--------------------|
---------------|--------------------|--------------------|--------------------|
---------------|--------------------|--------------------|--------------------|
---------------|--------------------|--------------------|--------12----13----|
---------------|------------13------|--------------------|--13----------------|
---------------|----------------10--|--11----12----13----|--------------------|

   Q.      Q.         Q     H           H.              Q    E   E   E   E   
------------------|------------------|---------------|----------------------|
------------------|--11----11--------|---------------|----------11--11--11--|
----------11------|------------------|---------------|----------------------|
--14--------------|------------------|---------------|----------------------|
------------------|------------------|---------------|----------------------|
------------------|------------------|---------------|----------------------|

   E   E   E   E   Q        H.              Q    E   E   E   E   
-------------------------|---------------|----------------------|
--11--11--11--11--11\----|---------------|----------11--11--11--|
-------------------------|---------------|----------------------|
-------------------------|---------------|----------------------|
-------------------------|---------------|----------------------|
-------------------------|---------------|----------------------|
                                                  >       >       
   E   E   E   E   Q         H.              Q    E   E   E   E   
--------------------------|---------------|-------9------11------|
--11--11--11--11--11\~----|---------------|----------11------11--|
--------------------------|---------------|----------------------|
--------------------------|---------------|----------------------|
--------------------------|---------------|----------------------|
--------------------------|---------------|----------------------|
  >                                                          
  Q    Q    Q       Q     E   E  Q       E  E  E   E  E  E   
-----------------|-------11-----------|--9--9---------------|
-----------------|-----------11-------|-----------11-----9--|
--8--------------|---------------8----|---------------------|
-----------------|--------------------|---------------------|
-----------------|--------------------|---------------------|
-----------------|--------------------|---------------------|
  PM   >                               >                                        
  Q    E   E  Q       H.               E   E  E  E  E  E      Q     E  E  Q     
-------------------|---------------|----------------------|--------------------|
-------7/----------|---------------|--11--11-----9-----7--|------------9--L----|
--8----------------|---------------|----------------------|--10----11----------|
-------------------|---------------|----------------------|--------------------|
-------------------|---------------|----------------------|--------------------|
-------------------|---------------|----------------------|--------------------|

  H.              H.              E   E  E  E  E   E     E  E   E   E  E  E   
---------------|---------------|----------------------|----------------------|
---------------|---------------|---------7--9--7------|----------------------|
---------------|---------------|-----10-----------10--|--8-----10------8-----|
---------------|---------------|----------------------|------------11--------|
---------------|---------------|----------------------|----------------------|
---------------|---------------|----------------------|----------------------|
                                  >                    >                  
   Q      E  E   E   E     E  E   E  E  E   E      E   E   E   E   E  E   
------------------------|----------------------|-------------------------|
------------------------|----------------------|-------------------------|
--10~----10--8----------|--------10--8---------|--10--11--10-------------|
----------------11------|------------------13--|--------------13--11-----|
--------------------11--|--8--9----------------|-------------------------|
------------------------|----------------------|-------------------------|
       >                                                          
   E   E   E   E   E   E      E  E   E   E  Q     
--------------------------|----------------------|
--------------------------|----------------------|
--10--11--10--------------|--10-----10--11-------|
--------------13--11--13--|----------------------|
--------------------------|----------------------|
--------------------------|----------------------|


|The end (2:41)
  E   E   E   E   E   E      E   E   Q    Q      
-------------------------|---------------------||
-------------------------|---------------------||
-------------------------|---------------------||
-------------------------|------11--13---------||
-----------------11--13--|--14-----------------||
-----11--13--14----------|---------------------||



--------------------------------------------------


.2> original Tenor Sax (in C)

Start at: 0:35
   H.              H.            
e ||---------------|---------------|
B ||---------------|---------------|
G ||---------------|---------------|
D ||---------------|---------------|
A ||---------------|---------------|
E ||---------------|--3------------|
A#||--1------------|---------------|

  H         Q       H.              H.              H.            
-----------------|---------------|---------------|---------------|
-----------------|---------------|---------------|---------------|
-----------------|---------------|---------------|---------------|
-----------------|---------------|---------------|---------------|
-----------------|---------------|---------------|---------------|
-----------------|---------------|---------------|---------------|
--8\-------------|---------------|---------------|---------------|

  H.              E  E  E  E  E  E     H.              H.            
---------------|--------------------|---------------|---------------|
---------------|--------------------|---------------|---------------|
---------------|--------------------|---------------|---------------|
---------------|--------------------|---------------|---------------|
---------------|--------------4--6--|---------------|---------------|
---------------|-----6--7--7--------|---------------|---------------|
---------------|--------------------|---------------|---------------|
                                                             >               
                                                             |--3--|         
  Q    Q      Q        H.                               Q    E  E  E  E  E   
--------------------|----------------|---------------|----------------------|
--------------------|----------------|---------------|-------0--------------|
-------4s~----7~----|--L\------------|---------------|----------2-----------|
--------------------|----------------|---------------|-------------4--------|
--------------------|----------------|---------------|----------------2-----|
--------------------|----------------|---------------|----------------------|
--------------------|----------------|---------------|----------------------|


|Resume at: 0:53
  E  E  E  E  E  E     E  E  E  E  Q       H.              H.            
--------------------|-------------------|---------------|---------------|
--------------------|-------------------|---------------|---------------|
-----2--4-----------|-------------------|---------------|---------------|
-----------5--4--2--|-------------------|---------------|---------------|
--------------------|-----5--2--0--2----|---------------|---------------|
--------------------|-------------------|---------------|---------------|
--------------------|-------------------|---------------|---------------|

  H.              H.              H.              Q    Q    E  E   
---------------|---------------|---------------|------------------|
---------------|---------------|---------------|------------------|
---------------|---------------|---------------|------------------|
---------------|---------------|---------------|---------------5--|
---------------|---------------|---------------|------------------|
---------------|---------------|---------------|------------------|
---------------|---------------|---------------|------------------|

  E  E  Q    Q       Q      H         
------------------|------------------|
------------------|------------------|
------------------|------------------|
------------------|------------------|
------------------|------------------|
-----3--0----2----|--3s~----7--------|
------------------|------------------|


|Resume at: 1:05
  Q    E  E  E  E     Q    Q    Q       Q    E  Q    E     E  E  E  Q    E   
-------------------|-----------------|------------------|-------------------|
-------------------|-----------------|------------------|-------------------|
----------6--3-----|-----------------|------------------|--2--2-------------|
-------6--------4--|-----------------|------------------|-----------0-------|
-------------------|--5--------------|----------5----5--|----------------0--|
-------------------|-----------------|------------------|-------------------|
-------------------|-----------------|------------------|-------------------|

  Q    Q    Q       H.              H.              H.            
-----------------|---------------|---------------|---------------|
-----------------|---------------|---------------|---------------|
-----------------|---------------|---------------|---------------|
-----------------|---------------|---------------|---------------|
-----------------|---------------|---------------|---------------|
--1--------------|---------------|---------------|---------------|
-----------------|---------------|---------------|---------------|
            >                                               
                          |----3----|                       
  Q    Q    E  E     Q    Q    Q    Q       Q    Q    Q     
------------------|----------------------|-----------------|
------------------|----------------------|-----------------|
------------------|----------------------|------------3----|
------------------|----------------------|--3----4---------|
------------------|-----------------4----|-----------------|
------------3-----|------------6---------|-----------------|
---------------4--|--5----7--------------|-----------------|

  Q    S S S S S S S S    H        Q       H.              H.            
-----------------------|----------------|---------------|---------------|
-----------------------|----------------|---------------|---------------|
--3----L-1-----3-1-----|--3-------------|---------------|---------------|
-----------4-3-----4-3-|----------------|---------------|---------------|
-----------------------|----------------|---------------|---------------|
-----------------------|----------------|---------------|---------------|
-----------------------|----------------|---------------|---------------|
                                     >                   >             >   
  H.              Q    Q    E  E     E  Q    E  E  E     E  Q    E  E  E   
---------------|------------------|-------------------|-------------------|
---------------|------------------|-------------------|-------------------|
---------------|------------3--3--|--3--3----3-----3--|--3--3----3-----3--|
---------------|------------------|-------------------|-------------------|
---------------|------------------|-------------------|-------------------|
---------------|------------------|-------------------|-------------------|
---------------|------------------|-------------------|-------------------|
        >     >        >     >     >                >     >      
                                   |--3--|                       
  E  E  E  E  E  E     E  E  E  E  E  E  E     Q    E  E  E  E   
--------------------|-----------------------|-------------------|
--------------------|-----------------------|-------------------|
--L--3--3--3--3--3--|--3--3--3--3--3--1-----|--3----3--3--3--3--|
--------------------|--------------------3--|-------------------|
--------------------|-----------------------|-------------------|
--------------------|-----------------------|-------------------|
--------------------|-----------------------|-------------------|
                        >                                  >           >      
  |--3--|                                                                     
  E  E  E  Q.     E     E  E  Q    Q       H.              E  E  E  E  E  E   
---------------------|------------------|---------------|--------------------|
---------------------|--2--1------------|---------------|--------------------|
--3--1-----3------3--|--------3---------|---------------|--1--1--------1--1--|
--------3------------|------------------|---------------|--------4--1--------|
---------------------|------------------|---------------|--------------------|
---------------------|------------------|---------------|--------------------|
---------------------|------------------|---------------|--------------------|
        >              >                          >           
  E  E  E  E  E  E     E  E  E  E  E  E     E  E  E  E  Q     
--------------------|--------------------|-------------------|
--------------------|--------------------|-------------------|
--------1--1--------|--------------------|-------------------|
--4--1--------4--1--|--3--4--3--1--------|--------3--1-------|
--------------------|--------------4--1--|-------------------|
--------------------|--------------------|--2--4-------------|
--------------------|--------------------|-------------------|

                           |----3----|                         
  Q    E  E  E  E     Q    Q    Q    Q       E  Q.     E  S S  
-------------------|----------------------|-------------------|
-------------------|----------------------|-------------------|
-------------------|----------------------|--1--3------L--1---|
-------------------|-------1----3----4----|-----------------3-|
----------------1--|--2-------------------|-------------------|
----------1--2-----|----------------------|-------------------|
-------------------|----------------------|-------------------|

  E  S S H           E  S S Q.     E     Q    Q    Q       H.            
------------------|-------------------|-----------------|---------------|
------------------|-------------------|-----------------|---------------|
--3--1---3--------|--L--1-------------|-----------------|---------------|
-------3----------|-------3--------1--|--L--------------|---------------|
------------------|---------4---------|-----------------|---------------|
------------------|-------------------|-----------------|---------------|
------------------|-------------------|-----------------|---------------|
               >                                             
  Q    Q    E  E     E  E  E  E  E  E     E  E  E  E  E  E   
------------------|--------------------|--------------------|
------------------|--------------------|--------------------|
------------------|--------------------|--------------------|
------------------|--------------------|--------------------|
------------------|--------------------|--------------------|
---------------2--|--------------1--1--|-----1-----1-----1--|
------------------|--0--1--3--5--------|--------------------|
  >          >                                                             
  E  Q    E  S S S S    H        Q       S S S S H           H.            
---------------------|----------------|-------------------|---------------|
---------------------|----------------|-------------------|---------------|
---------------------|----------------|-------------------|---------------|
-------------------1-|--3-------------|--3-4-3-1-0--------|---------------|
-----------------3---|----------------|-------------------|---------------|
--1--1----1--1-4-----|----------------|-------------------|---------------|
---------------------|----------------|-------------------|--1------------|

  H.              H         Q       H.              H.            
---------------|-----------------|---------------|---------------|
---------------|-----------------|---------------|---------------|
---------------|-----------------|---------------|---------------|
---------------|-----------------|---------------|---------------|
---------------|-----------------|---------------|---------------|
--3------------|-----------------|---------------|---------------|
---------------|--8\-------------|---------------|---------------|

  H.              H.              E  E  E  E  E  E     E  E  E  E  E  E   
---------------|---------------|--------------------|--------------------|
---------------|---------------|--------------------|--------------------|
---------------|---------------|--------------------|--------------------|
---------------|---------------|--------------------|--------0--1--2--4--|
---------------|---------------|-----2--------0--1--|--2--4--------------|
---------------|---------------|--------3--4--------|--------------------|
---------------|---------------|--------------------|--------------------|
  >     >                                                                  
  E  E  E  E  Q       Q    E  E  E  E     H        E  S S    H.            
-------------------|-------------------|------------------|---------------|
-------------------|----------------1--|--0--------L------|---------------|
--1--2--2----------|-------------------|--------------2---|---------------|
-----------2-------|----------2--4-----|----------------4-|--1------------|
-------------------|-------------------|------------------|---------------|
-------------------|-------------------|------------------|---------------|
-------------------|-------------------|------------------|---------------|

  H.              H.              H.              Q     Q       Q     
---------------|---------------|---------------|---------------------|
---------------|---------------|---------------|---------------------|
---------------|---------------|---------------|---------------------|
--2------------|---------------|---------------|---------------------|
---------------|---------------|---------------|---------------------|
---------------|---------------|---------------|-------20s~----17----|
---------------|---------------|---------------|---------------------|
                                                                     >         
   Q      Q      Q       Q    Q    Q       H.              E  S S E  E  E  E   
----------------------|-----------------|---------------|---------------------|
----------------------|-----------------|---------------|---------------------|
----------------------|-----------------|---------------|------------0--------|
----------------------|-----------------|---------------|---------0-----4--2--|
----------------------|-----------------|---------------|-------2-------------|
----------------------|--2--------------|---------------|-----3---------------|
--17s~----8s~----5----|-----------------|---------------|---------------------|

  E  E  E  E  Q       Q    Q    Q     
-------------------|-----------------|
-------------------|-----------------|
-------------------|-----------------|
--0----------------|-----------------|
-----3--2-----0----|--L--------------|
-----------3-------|-----------------|
-------------------|-----------------|


|Resume at: 2:04
       >                                                                
  Q    E  E  E  E     E  E  E  E  Q       H.              H.            
-------------------|-------------------|---------------|---------------|
-------------------|-------------------|---------------|---------------|
-------3--1--------|-------------------|---------------|---------------|
-------------4--1--|--0-----0--1-------|---------------|---------------|
-------------------|-----4-------------|---------------|---------------|
-------------------|-------------------|---------------|---------------|
-------------------|-------------------|---------------|---------------|

  H.              E  E  E  E  E  E     E  E  E  E  Q       Q    Q    Q     
---------------|--------------------|-------------------|-----------------|
---------------|--------------------|-------------------|-----------------|
---------------|--------------5--5--|--5----------------|--5--------------|
---------------|--------------------|-----8--7--8--L----|-----------------|
---------------|-----------6--------|-------------------|-----------------|
---------------|-----8--------------|-------------------|-----------------|
---------------|--------------------|-------------------|-----------------|

  Q    Q       Q        Q    Q    Q       H.              H.            
--------------------|------------------|---------------|---------------|
--------------------|------------------|---------------|---------------|
--------------------|------------------|---------------|---------------|
-------7s~----10----|------------------|---------------|---------------|
--------------------|------------------|---------------|---------------|
--------------------|--10--------------|---------------|---------------|
--------------------|------------------|---------------|---------------|
                                            >                        
  H.              H.              Q    Q    E  E     Q    Q    Q     
---------------|---------------|------------------|-----------------|
---------------|---------------|------------------|-----------------|
---------------|---------------|------------------|-----------------|
---------------|---------------|------------------|-----------------|
---------------|---------------|------------------|-----------------|
---------------|---------------|------------6-----|-----------------|
---------------|---------------|---------------4--|--5----6----7----|

  Q    Q    Q       Q.     Q.        Q    H           H.            
-----------------|----------------|----------------|---------------|
-----------------|----------------|----------------|---------------|
-----------------|----------------|----------------|---------------|
-----------------|---------4------|--8----8--------|---------------|
-------5----6----|--7-------------|----------------|---------------|
--6--------------|----------------|----------------|---------------|
-----------------|----------------|----------------|---------------|

  Q    E  E  E  E     E  E  E  E  Q        H.              Q    E  E  E  E   
-------------------|--------------------|---------------|-------------------|
-------------------|--------------------|---------------|-------------------|
-------------------|--------------------|---------------|-------------------|
----------8--8--8--|--8--8--8--8--8\----|---------------|----------8--8--8--|
-------------------|--------------------|---------------|-------------------|
-------------------|--------------------|---------------|-------------------|
-------------------|--------------------|---------------|-------------------|
                                             >     >        >               
  E  E  E  E  Q         H.              Q    E  E  E  E     Q    Q    Q     
---------------------|---------------|-------------------|-----------------|
---------------------|---------------|-------2-----4-----|-----------------|
---------------------|---------------|----------3-----3--|-----------------|
--8--8--8--8--8\~----|---------------|-------------------|--1--------------|
---------------------|---------------|-------------------|-----------------|
---------------------|---------------|-------------------|-----------------|
---------------------|---------------|-------------------|-----------------|
                                          PM   >                            
  Q    E  E  Q       E  E  E  E  E  E     Q    E   E  Q       H.            
------------------|--------------------|-------------------|---------------|
-------4----------|--2--2--------------|-------------------|---------------|
----------3-------|-----------3-----1--|-------------------|---------------|
-------------1----|--------------------|--1----4/----------|---------------|
------------------|--------------------|-------------------|---------------|
------------------|--------------------|-------------------|---------------|
------------------|--------------------|-------------------|---------------|
  >                                                                     
  E  E  E  E  E  E     Q    E  E  Q       H.              H.            
--------------------|------------------|---------------|---------------|
--------------------|------------------|---------------|---------------|
--------------------|------------------|---------------|---------------|
--8--8-----6--------|----------6--L----|---------------|---------------|
-----------------9--|--8----9----------|---------------|---------------|
--------------------|------------------|---------------|---------------|
--------------------|------------------|---------------|---------------|

  E  E  E  E  E  E     E  E  E  E  E  E     Q     E  E  E  E   
--------------------|--------------------|--------------------|
--------------------|--------------------|--------------------|
-----------1--------|--------------------|--------------------|
-----3--4-----4--3--|--1-----3-----1-----|--3~----3--1--------|
--------------------|-----------4--------|--------------4-----|
--------------------|--------------------|-----------------4--|
--------------------|--------------------|--------------------|
        >                 >                    >               
  E  E  E  E  E  E     E  E  E  E  E  E     E  E  E  E  E  E   
--------------------|--------------------|--------------------|
--------------------|--------------------|--------------------|
--------------------|--------------------|--------------------|
--------3--1-----1--|--3--4--3--1--------|--3--4--3--1-----1--|
--------------------|--------------4-----|--------------4-----|
--1--2--------------|--------------------|--------------------|
--------------------|--------------------|--------------------|

  E  E  E  E  Q     
-------------------|
-------------------|
-------------------|
--3-----3--4-------|
-------------------|
-------------------|
-------------------|


|The end (2:41)
  E  E  E  E  E  E     E  E  Q    Q      
--------------------|------------------||
--------------------|------------------||
--------------------|------------------||
--------------------|------------------||
--------------------|-----4--6---------||
--------------4--6--|--7---------------||
-----5--7--8--------|------------------||


--------------------------------------------------


.3> Bass

-Intro
      Q    Q    Q       Q    Q    Q     4x                
G||------------------|------------------||
D||*--1---------4----|--1--------------*||
A||*-------1---------|-------1---------*||
E||------------------|------------2-----||


-A
     Q    Q    Q       Q    Q    Q     
||------------------|-----------------|
||*--1---------4----|--1--------------|
||*-------1---------|-------1---------|
||------------------|------------2----|

  Q    Q    Q       Q    Q    Q       Q    Q    Q       Q    Q    Q     
-----------------|-----------------|-----------------|-----------------|
--0---------4----|--0--------------|------------4----|-----------------|
-------1---------|-------1---------|--4----1---------|--4----1---------|
-----------------|------------2----|-----------------|------------2----|

  Q    Q    Q       Q    Q    Q       Q    Q    Q       Q    Q    Q     
-----------------|-----------------|-----------------|-----------------|
-------3----4----|--1---------4----|--0----3---------|--0--------------|
--3--------------|-------2---------|------------0----|------------0----|
-----------------|-----------------|-----------------|-------1---------|

  Q    Q    Q       Q    Q    Q       Q    Q    Q       Q    Q    Q     
-----------------|-----------------|-----------------|-----------------|
--0----3---------|--0--------------|--0----1----3----|-------3----4----|
------------0----|------------0----|-----------------|--1--------------|
-----------------|-------1---------|-----------------|-----------------|


|-Ending 1                                 >                >           
  Q    Q    Q       Q    Q    Q       Q    H           Q    H           
-----------------|--3--------------|--3----3--------|-----------------||
--0----3----4----|-------4---------|----------------|-------4--------*||
-----------------|------------2----|----------------|--2-------------*||
-----------------|-----------------|----------------|-----------------||

|-Ending 2
  Q    Q    Q       Q    Q    Q       Q    Q    Q       Q    Q    Q     
-----------------|-----------------|-----------------|-----------------|
-------0----3----|--4---------1----|-----------------|-----------------|
--2--------------|-------1---------|--1---------0----|--1--------------|
-----------------|-----------------|-------2---------|-------0----1----|

  >               >                                                             
  H.              H.                                                            
---------------|---------------|
---------------|---------------|
---------------|--2------------|
--2------------|---------------|



-B
     Q    Q    Q     
||------------------|
||*--2--------------|
||*-------2---------|
||-------------0----|

  Q    Q    Q       Q    Q    Q       Q    Q    Q       Q    Q    Q     
-----------------|-----------------|-----------------|-----------------|
--2--------------|--2--------------|--2--------------|--2--------------|
-------2---------|-------2---------|-------2---------|-------0---------|
------------0----|------------0----|------------0----|------------0----|

  Q    Q    Q       Q    Q    Q       Q    Q    Q       Q    Q    Q     
-----------------|-----------------|-----------------|-----------------|
--2--------------|--2--------------|--2--------------|-----------------|
-------0---------|-------0---------|-------0---------|--3----0---------|
------------0----|------------0----|------------0----|------------0----|

  Q    Q    Q       Q    Q    Q       Q    Q    Q       Q    Q    Q     
-----------------|-----------------|-----------------|-----------------|
-----------------|-----------------|-----------------|--2--------------|
--3----0---------|--2----0---------|--2----0---------|-------2---------|
------------0----|------------2----|------------2----|------------0----|

                 |-Ending 1                             
  Q    Q    Q       Q    Q    Q       Q    Q    Q        
-----------------|-----------------|------------------||
--2---------2----|-----------------|-----------------*||
-------2---------|--2---------0----|--2---------2----*||
-----------------|-------0---------|-------2----------||

|-Ending 2
  Q   Q    Q        Q    Q    Q
-----------------|-----------------|
-----------------|------------0----|
--2---------0----|--2----3---------|
-------2---------|-----------------|



Replay A but do not play ending #1 or #2, play this instead:

  Q    Q    Q       Q    Q    Q       Q    Q    Q       Q    Q    Q     
-----------------|-----------------|-----------------|-----------------|
--0----3----4----|--3---------1----|------------4----|--3---------3----|
-----------------|-------1---------|--1----4---------|-----------------|
-----------------|-----------------|-----------------|-----------------|

  Q    Q    Q       Q    Q    Q                                             
-----------------|-----------------|
--0---------0----|-----------------|
-----------------|--4---------4----|
-----------------|-----------------|


-C
     Q    Q    Q       Q    Q    Q    14x  Q    Q    Q     
||------------------|------------------||-----------------|
||*------------4----|------------4----*||------------4----|
||*--6--------------|--6--------------*||--6--------------|
||--------6---------|-------6----------||-------6---------|

  >               >                                                             
  H.              H.                                                            
---------------|---------------|
---------------|---------------|
---------------|--2------------|
--2------------|---------------|


Repeat from B expect don't do the previous 14x repeat + 3 measures, instead:

    Q    Q    Q       Q    Q    Q    16x                                        
|------------------|------------------||-------||
|*------------4----|------------4----*||-------||
|*--6--------------|--6--------------*||-------||
|--------6---------|-------6----------||-------||




Duration Legend
---------------
W - whole
H - half
Q - quarter
E - 8th
S - 16th
. - note dotted
|-n-|  - n-tuplets


Tablature Legend
----------------
L - tied note
g - grace note
(n) - ghost note
> - accentuded note
s - legato slide
/ -  slide into from below or out of upwards
\ -  slide into from above or out of downwards
~ - vibrato
        
Comments

No comments yet