Gametabs
Home
Tabs
Random

Red Mountain

Average rating: No ratings

Composer:

Tabber:

Style:

Instrument:

Created: May 18, 2012 at 12:00 AM

                      Coryoon, Child of Dragon - Red Mountain  BASS TAB
            Song by Hisashi Matsushita, Daisuke Morishima

               Tabbed by auriplane ([email protected])


Four-string bass, standard tuning.

        Part A
                                                     
G |----------------|----------------|----------------|--12--12--12--12|
D |--10--10--10--10|--13--13--13--13|--12--12--12--12|----------------| x2
A |----------------|----------------|----------------|10--10--10--10--|
E |8---8---8---8---|11--11--11--11--|10--10--10--10--|----------------|  

        Part B

G |----------------|----------------|----------------|----------------|
D |--10--10--10--10|--10--10--10--10|--9---9---9---9-|--9---9---9---9-| x4
A |----------------|----------------|----------------|----------------|
E |8---8---8---8---|8---8---8---8---|7---7---7---7---|7---7---7---7---|

G |----------------|----------------|----------------|----------------|
D |--10--10--10--10|--12--12--12--12|--13--13--13--13|--12--12--12--12|
A |----------------|----------------|----------------|----------------|
E |8---8---8---8---|10--10--10--10--|11--11--11--11--|10--10--10--10--|

G |----------------|----------------|----------------|--10--10--12--12|
D |--10--10--10--10|--12--12--12--12|--13--13--13--13|----------------|
A |----------------|----------------|----------------|8---8---10--10--|
E |8---8---8---8---|10--10--10--10--|11--11--11--11--|----------------|

        Part C

G |----------8---8-|--7---7---10--10|----------8---8-|--7---7---10--10|
D |--10--10--------|----------------|--10--10--------|----------------|
A |--------6---6---|5---5---8---8---|--------6---6---|5---5---8---8---|
E |8---8-----------|----------------|8---8-----------|----------------|

G |----------------|----------------|
D |--5---5---5---5-|--5---5---5---5-|
A |----------------|----------------|
E |3---3---3---3---|3---3---3---3---|

        Now play Part B again, then repeat back to the beginning.


        
Comments

No comments yet