Gametabs
Home
Tabs
Random

The road to hell

Average rating: 5.000

2 ratings

Composer:

Tabber:

Style:

Instrument:

Created: October 27, 2015 at 12:00 AM

            The road to hell
from Corpse Party BloodCovered
Music by Mao Hamamoto
tab by MechaKrauser

Standard tuning, capo on 3
4/4 time, 120bpm

*Staccato'd notes have been marked with "."


      E  E  E  E  E  E  E  E     E  E  E  E  E  E  E  E     E  E  E  E  E  E  E  E   
E||---------------------------|--------------------------|--------------------------|
B||---------1-----0-----------|--3-----1-----0-----1-----|--------1-----0-----------|
G||*--------------------2-----|--------------------------|--------------------2-----|
D||*-----2-----2-----2-----2--|-----2-----2-----2-----2--|-----2-----2-----2-----2--|
A||---0-----------------------|--------------------------|--0-----------------------|
E||---------------------------|--------------------------|--------------------------|


                             >  >                             ^             >            
  E  E  E  E  E  E  E  E     E  S  S E  E  S  S E  E  S  S    E  E  S  S E  E  E  E  E   
--------------------------|--------------------------------|----------------0-----------|
--3-----1-----0-----1-----|-----1p-0-1-----1p-0-1-----1p-0-|--1-----1p-0-1-----3--1--0--|
--------------------------|--2--2-------2----------2-------|-----2----------------------|
-----2-----2-----2-----2--|--2-----------------------------|--2-------------2-----2-----|
--------------------------|--0--0--------------------------|----------------0-----------|
--------------------------|--------------------------------|----------------------------|


  >  >                             ^             >              ^  >                     
  E  S  S E  E  S  S E  E  S  S    E  E  S  S E  E  E  E  E     E  E  E  E  E  E  E  E   
--------------------------------|----------------0-----------|--------------------------|
-----1p-0-1-----1p-0-1-----1p-0-|--1-----1p-0-1-----1--0-----|--------1-----0-----------|
--2--2-------2----------2-------|-----2-------------------2--|--2-----------------2-----|
--2-----------------------------|--2-------------2-----2-----|--3--3-----3-----3-----3--|
--0--0--------------------------|----------------0-----------|--0--0--------------------|
--------------------------------|----------------------------|--------------------------|


              >              ^  >                         >     >         >     >  >   
  E  E  E  E  E  E  E  E     E  E  E  E  E  E  E  S  S    E  E  S  S S  S E  E  E  E   
--------------1--0--1-----|----------------------------|------------------0--1--------|
--3-----1-----0-----1--3--|--------1-----0--------0h-1-|--1-----1p-0-1h-3-------3--1--|
--------------------------|--2-----------------2-------|-----2------------------------|
-----3-----3-----3-----3--|--3--3-----3-----3-----3----|--3-----3---------3-----3-----|
--------------0-----------|--0--0----------------------|--0-----0---------0-----------|
--------------------------|----------------------------|------------------------------|


  >  >          >                  >             >            
  E  S  S E  E  S  S E  E  S  S    E  E  S  S E  E  E  E  E   
--------------------------------|----------------0-----------|
-----1p-0-1-----1p-0-1-----1p-0-|--1-----1p-0-1-----3--1--0--|
--2--2-------2--2-------2-------|-----2----------------------|
--2----------2----------2-------|--2-----2-------2-----2-----|
--0--0-------0--0---------------|--0-------------0-----------|
--------------------------------|----------------------------|


  >  >          >                  >             >              ^  >        >            
  E  S  S E  E  S  S E  E  S  S    E  E  S  S E  E  E  E  E     E  E  E  E  E  E  E  E   
--------------------------------|----------------0-----------|--------------------------|
-----1p-0-1-----1p-0-1-----1p-0-|--1-----1p-0-1-----1--0-----|--------1-----0-----------|
--2--2-------2--2-------2-------|-----2-------------------2--|--2-----------------2-----|
--2----------2----------2-------|--2-----2-------2-----2-----|--3--3-----3-----3-----3--|
--0--0-------0--0---------------|--0-------------0-----------|--0--0-----0--0-----------|
--------------------------------|----------------------------|--------------------------|


  >             >              ^  >        >                >     >         >     ^     
  E  E  S  S E  E  E  E  E     E  E  E  E  E  E  E  S  S    E  E  S  S S  S E  E  Q     
----------------1--0--1-----|----------------------------|------------------0--1-------|
--3-----1p-0-1-----1-----3--|--------1-----0--------0h-1-|--1-----1p-0-1h-3-------3----|
----------------------2-----|--2-----------------2-------|-----2-----------------------|
--3--3--3-------3-----------|--3--3-----3-----3-----3----|--3-----3---------3-----3----|
--0-------------0-----------|--0--0-----0--0-------------|--0-----0---------0----------|
----------------------------|----------------------------|-----------------------------|


              NH                  .  .                       
  H           H           S S S S E  E  S S S S S  S  S S  
-----------<>12--------|----0---0---------0---0---------0-|
-----------------------|------1---1--0------1---0h-3p-1---|
-----------------------|--2-------------2-----------------|
-----------------------|----------------------------------|
-----------------------|--0-------------0-----------------|
-----------------------|----------------------------------|

                                                .  .
  S S S S S S S  S S S S S  S S  S S    S S S S E  E  E  E  E  E   
----0---0--------------------------0-|----1---1-------------------|
------1---1---0h-1---0---1p-0-3p-1---|------3---1--0-----0--1--3--|
--2---------2------1---2-------------|--2-------------2-----------|
-------------------------------------|----------------------------|
--0----------------0-----------------|--0-------------0-----------|
-------------------------------------|----------------------------|


  E  E  E  E  E  E  E  S S    S S  S  S E  E  E  E  E  S  S  
-----0-------------------0-|--------------------------------|
--------3--1--------0--1---|----1p-0h-1----------------0h-1-|
--2-----------1--2---------|------------2--0-----0--2-------|
---------------------------|--3---------------3-------------|
--0-----------0------------|--------------------------------|
---------------------------|--1---------------1-------------|


  S S  S  S E  E  E  E  E  S  S    S S  S  S E  E  E  E  E  E   
--------------------------------|------------------------------|
----1p-0h-1----------------0h-1-|----1p-0h-1-0-----------0-----|
------------2--0-----0--2-------|---------------2--1--2--------|
--3---------------3-------------|--4------------------------2--|
--------------------------------|------------------------------|
--1---------------1-------------|--2---------------2-----------|

                                                     .  .
  S S  S  S S S  S  S S S  S  S S S  S  S    S S S S E  E  S S S S S  S  S S  
------------1-------------------1---------|----0---0---------0---0---------0-|
----3p-0h-3---3p-0h-3---3p-0h-3---3p-0h-3-|------1---1--0------1---0h-3p-1---|
--0-------------------0-------------------|--2-------------2-----------------|
------------------------------------------|--2-------------------------------|
------------------------------------------|--0-------------0-----------------|
--3-------------------3-------------------|----------------------------------|

                                                .  .
  S S S S S S S  S S S S S  S S  S S    S S S S E  E  E  E  E  E   
----0---0--------------------------0-|----1---1-------------------|
------1---1---0h-1---0---1p-0-3p-1---|------3---1--0-----0--1--3--|
--2---------2------1---2-------------|--2-------------2-----------|
--2----------------------------------|--3-------------------------|
--0----------------0-----------------|--0-------------0-----------|
-------------------------------------|----------------------------|


  E  E  E  E  E  E  E  S S    S S  S  S E  E  E  E  E  S  S  
-----0-------------------0-|--------------------------------|
--------3--1--------0--1---|----1p-0h-1----------------0h-1-|
--2-----------1--2---------|------------2--0-----0--2-------|
--3------------------------|--3---------------3-------------|
--0-----------0------------|--------------------------------|
---------------------------|--1---------------1-------------|


  S S  S  S E  E  E  E  E  S  S    S S  S  S E  E  E  E  E  E   
--------------------------------|------------------------------|
----1p-0h-1----------------0h-1-|----1p-0h-1-0-----------0-----|
------------2--0-----0--2-------|---------------2--1--2--------|
--3---------------3-------------|--4------------------------2--|
--------------------------------|------------------------------|
--1---------------1-------------|--2---------------2-----------|

                                             .    .    .    .       .    .    .    .  
                                             ^											 
  S S  S  S S S  S  S S S  S  S S S  S  S    Q    Q    Q    Q       Q    Q    Q    Q     
------------1-------------------1---------|-------0----1---------|-------4----5----7----|
----3p-0h-3---3p-0h-3---3p-0h-3---3p-0h-3-|-----------------3----|--5-------------------|
--0-------------------0-------------------|--2-------------------|-------5----4----7----|
------------------------------------------|--2-------------------|----------------------|
------------------------------------------|--0-------------------|--0-------------------|
--3-------------------3-------------------|----------------------|----------------------|


  E  E  Q    Q    Q       
------------------------||
--3-----1----0----1-----||
-----------------------*||
-----2-----------------*||
--0---------------------||
------------------------||




Duration Legend
---------------
W - whole
H - half
Q - quarter
E - 8th
S - 16th
T - 32nd
X - 64th
. - note dotted
|-n-|  - n-tuplets


Tablature Legend
----------------
L - tied note
x - dead note
g - grace note
(n) - ghost note
> - accentuded note
NH - natural harmonic
AH - artificial harmonic
TH - tapped harmonic
SH - semi harmonic
PH - pitch harmonic
h - hammer on
p - pull off
b - bend
br - bendRelease
pb - preBend
pbr - preBendRelease
brb - bendReleaseBend
\n/ - tremolo bar dip
\n - tremolo bar dive
-/n - tremolo bar Release up
/n\ - tremolo bar inverted dip
/n - tremolo bar return
-\n - tremolo bar Release down
S - shift slide
s - legato slide
/ -  slide into from below or out of upwards
\ -  slide into from above or out of downwards
~ - vibrato
W - wide vibrato
tr - trill
TP - tremolo picking
T - tapping
S - slap
P - pop
< - fade in
^ - brush up
v - brush down

        
Comments

No comments yet