Gametabs
Home
Tabs
Random

Music Room

Average rating: 5.000

5 ratings

Composer:

Tabber:

Style:

Instrument:

Created: October 27, 2016 at 12:00 AM

            Music Room
from Corpse Party BloodCovered
music by Mao Hamamoto
tab by MechaKrauser

Standard tuning, capo on 5
2/4 time, 90bpm

Stacatto'd notes marked with "."

                                                                        >
      .      .  .     .      .  .     .      .  .     .                 ^    .  . 
      E  S S E  E     E  S S E  E     E  S S E  E     E  S S S S S S    Q    E  E   
E||----------------|---------------|---------------|-------0-1-0---1-|--0----0-----|
B||--------0-1-----|--0--0-1-3--0--|--1--1-3-4--1--|--3--3-------3---|-------------|
G||*--2--2------2--|---------------|---------------|-----------------|--2-------2--|
D||*-----2------2--|-----3------3--|-----1------1--|-----2-------2---|--1-------2--|
A||---0------0-----|---------------|---------------|-----------------|--0----0-----|
E||----------------|--4------4-----|--3------3-----|--4------4-L-----|-------------|


  .  .  .  .     .  .  .  .     .  .  .  .     .  .  .  .      .      .  .
  E  E  E  E     E  E  E  E     E  E  E  E     E  S S E  E     E  S S E  E   
--1-----1-----|--------------|--0-----0-----|---------------|---------------|
-----3-----3--|--4--1--4--1--|-----1-----1--|-------0-1-----|--0--0-1-3--0--|
--------------|--------------|--------------|--2--2------2--|---------------|
-----3-----3--|-----1-----1--|-----2-----2--|-----2------2--|-----3------3--|
--0-----0-----|--0-----0-----|--0-----0-----|--0------0-----|---------------|
--------------|--------------|--------------|---------------|--4------4-----|

                                                                        >
  .      .  .     .                 .  .  .  .     .  .  .  .     .  .  ^    
  E  S S E  E     E  S S S S S S    E  E  E  E     E  E  E  E     E  E  Q     
---------------|-------0-1-0---1-|--0-----0-----|--1-----1-----|-------------|
--1--1-3-4--1--|--3--3-------3---|--------------|-----3-----3--|--4--1--4----|
---------------|-----------------|-----2-----2--|--------------|--------2----|
-----1------1--|-----2-------2---|-----2-----2--|-----3-----3--|-----1--1----|
---------------|-----------------|--0-----0-----|--0-----0-----|--0-----0----|
--3------3-----|--4------4-L-----|--------------|--------------|-------------|


  .  .  .                                               >     >        >     >       
  E  E  E  S S    S S S S S S S S    S S S S S S S S    E  E  E  E     E  E  E  S S  
--0-----0------|--0---0---1---1---|----------0---0---|--------------|---------------|
-----1-----1---|--1---1---3---3---|--3---3---1---1---|-----1-----3--|-----------1---|
-------------2-|----2---2---2---2-|--4-2-4-2---2---2-|-----2-----4--|-----4-----2-2-|
-----2-----2---|------------------|------------------|-----2-----3--|-----3-----2---|
--0-----0------|--0-------0-------|--0-------0-------|--0-----0-----|--0--5--0------|
---------------|------------------|------------------|--------------|---------------|


                                        >     >        >     >        >         
  S S S S S S S S    S S S S S S S S    E  E  E  E     E  E  E  E     H         
--0---0---1---1---|--3---3---0---0---|--------------|--------------|-----------|
--1---1---3---3---|--5---5---1---1---|-----1-----3--|-----------1--|-----------|
----2---2---2---2-|----2---2---2---2-|-----2-----4--|-----4-----2--|-----------|
------------------|------------------|-----2-----3--|-----3-----2--|-----------|
--0-------0-------|--0-------0-------|--0-----0-----|--0--5--0-----|-----------|
------------------|------------------|--------------|--------------|--4--------|

                >
                ^                      
  H             H           H          
------------||--0--------|--L--------||
------------||--0--------|--L--------||
-----------*||--3--------|--L--------||
-----------*||--2--------|--L--------||
------------||--1--------|--L--------||
--L---------||--0--------|--L--------||




Duration Legend
---------------
W - whole
H - half
Q - quarter
E - 8th
S - 16th
T - 32nd
X - 64th
. - note dotted
|-n-|  - n-tuplets


Tablature Legend
----------------
L - tied note
x - dead note
g - grace note
(n) - ghost note
> - accentuded note
NH - natural harmonic
AH - artificial harmonic
TH - tapped harmonic
SH - semi harmonic
PH - pitch harmonic
h - hammer on
p - pull off
b - bend
br - bendRelease
pb - preBend
pbr - preBendRelease
brb - bendReleaseBend
\n/ - tremolo bar dip
\n - tremolo bar dive
-/n - tremolo bar Release up
/n\ - tremolo bar inverted dip
/n - tremolo bar return
-\n - tremolo bar Release down
S - shift slide
s - legato slide
/ -  slide into from below or out of upwards
\ -  slide into from above or out of downwards
~ - vibrato
W - wide vibrato
tr - trill
TP - tremolo picking
T - tapping
S - slap
P - pop
< - fade in
^ - brush up
v - brush down

        
Comments

@scarecrowlol (October 28, 2016 at 7:11 AM)

(ノ◕ヮ◕)ノ*:・゚✧

The moment you approach the music room and the music gets louder, but as you approach the piano no one is playing it....