Gametabs
Home
Tabs
Random

Waterfall

Average rating: 5.000

3 ratings

Composer:

Tabber:

Style:

Instrument:

Created: June 04, 2021 at 12:00 AM

            Waterfall         
Contra
Composed by Kazuki Muraoka (Hidenori Maezawa, Kiyohiro Sada)
Arranged by William Geesdorf  


     Shortened Intro
     E  E  E  Q    E  E  E     E  E  E  Q    E  E  E   
E||--3--0--2--3----3--0--2--|--3--0--2--3----3--0--2--|
B||-------------------------|-------------------------|
G||-------------------------|-------------------------|
D||-------------------------|--0----------------------|
A||--0----------------------|-------------------------|
E||-------------------------|-------------------------|


  E  E  E  Q    E  E  E     E  E  E  Q    E  E  E     E  E  E  Q    E  E  E   
--3--0--2--3----3--0--2--|--3--0--2--3----3--0--2--|--3--0--2--3----3--0--2--|
-------------------------|-------------------------|--0----------------------|
-------------------------|--0----------------------|-------------------------|
--2----------------------|-------------------------|-------------------------|
-------------------------|-------------------------|-------------------------|
-------------------------|-------------------------|-------------------------|


  E  E  E  H        E       E  E  E  E  E  E  E  E     E  E  E  E  E  E  E  E   
--3--0--2--3-----------||---------------------------|--------------------3--2--|
-----------------------||---------0--1-----3--------|--0-----------------------|
-----------------------||*--2--------------------2--|-----4--0-----0--2--------|
-----------------------||*-----2--------2-----2-----|-----------2--------------|
-----------------------||---0-----------------------|--0-----------------------|
-----------------------||---------------------------|--------------------------|


  E  E  E  E  E  E  E  E     E  E  E  E  E  E  E  E   
--------------------2--0--|--------------------------|
-----------3--------------|-----------0--------------|
--------0-----0--2--------|--------2-----2--0-----0--|
-----4--------------------|-----2--------------4-----|
--0-----------------------|--0-----------------------|
--------------------------|--------------------------|


  E  E  E  E  E  E  E  E     E  E  E  E  E  E  E  E   
--------------------------|--------------------3--2--|
--------0--1-----3--------|--0-----------------------|
--2--------------------2--|-----4--0-----0--2--------|
-----2--------2-----2-----|-----------2--------------|
--0-----------------------|--0-----------------------|
--------------------------|--------------------------|


  E  E  E  E  E  E  E  E     E  E  E  E  E  E  E  E   
--------------------2--0--|--------------------------|
-----------3--------------|-----------0--------------|
--------0-----0--2--------|--------2-----2--0--------|
-----4--------------------|-----2--------------2--0--|
--0-----------------------|--0-----------------------|
--------------------------|--------------------------|


  E  E  E  E  E  E  E  E     E  E  E  E  H           E  E  E  E  E  E  E  E   
--------------------------|--------------0--------|--------------------------|
--------------------------|--------------0--------|--------------------------|
--------------0--------0--|--2-----0--2-----------|--0--------0--2-----0--2--|
--3-----0--3--------3-----|-----------------------|-----0--2--------0--------|
-----3-----------3--------|-----3-----------------|--------------------------|
--1-----------------------|--1--------------------|--3-----------------------|

                          1st Ending
  E  E  E  E  H           E  E   E  E  E  E  E  E  E  E  E  E  E  E  E  E   
-----------------------|-----0---------0--------0--------0--------0--------|
--0--------0--5--------|--------10--------8--------7--------5--------8-----|
--------2-----5--------|------------0--------0--------0--------0--------0--|
-----0-----------------|---------------------------------------------------|
-----------------------|--0------------------------------------------------|
--3--------------------|---------------------------------------------------|


  E  E   E  E  E  E  E  E  E  E  E  E  E  E  Q       
-----0---------0--------0--------0--------0--3-----||
--------10--------8--------7--------5--------------||
------------0--------0--------0--------0----------*||
--------------------------------------------------*||
--0------------------------------------------------||
---------------------------------------------------||


  2nd Ending                                      ^  ^      ^         
  E  E  E  E  E  E  E  E  E  E  E  Q    Q.        E  Q.     H         
--5--3-----------------------------------------|--x--x------x--------|
--------5--3--5--3--1-----1--------------------|--x--x------x--------|
-----------------------2-----2--0--2-----------|--x--x------x--------|
-----------------------------------2-----------|--x--x------x--------|
--0--------------------------------0-----------|--x--x------x--------|
-----------------------------------------------|--x--x------x--------|


  E  E  Q    Q    Q       E  E  E  E  E  E  E  E     E  E  E  E  E  E  E  E   
-----------------------|-----------------------0--|--------------0-----2-----|
-----------------------|--1--------0--1--1--3-----|--------3-----------------|
--2--2--2----1----1----|--------2-----------------|-----------0-----0-----0--|
--2--2--2----3----3----|-----2--------------------|-----4--------------------|
--0--0--0----1----1----|--0-----------------------|--0-----------------------|
-----------------------|--------------------------|--------------------------|


  E  E  E  E  E  E  E  E     E  E  E  E  E  E  E  E   
-----------------------0--|--------------------------|
--1--------0--1--1--3-----|--------3-----1--0--------|
--------2-----------------|-----------0--------0-----|
-----2--------------------|-----4-----------------0--|
--0-----------------------|--0-----------------------|
--------------------------|--------------------------|


  E  E  E  E  E  E  E  E     E  E  E  E  E  E  E  E   
-----------------------0--|--------------0-----2-----|
--1--------0--1--1--3-----|--------3-----------------|
--------2-----------------|-----------0-----0-----0--|
-----2--------------------|-----4--------------------|
--0-----------------------|--0-----------------------|
--------------------------|--------------------------|


  E   E  E  Q    E  E  Q    E  E  Q    E  Q         E  E  E  E  E  E  E  E   
-----------------------------------------------||---------------------------|
---------------------------------------0--1----||---------0--1-----3--------|
---------0-------0--2--0----2--4--2------------||*--2--------------------2--|
--2s--4-----4----------------------------------||*-----2--------2-----2-----|
--0--------------------------------------------||---0-----------------------|
-----------------------------------------------||---------------------------|


  E  E  E  E  E  E  E  E     E  E  E  E  E  E  E  E   
--------------------3--2--|--------------------2--0--|
--0-----------------------|-----------3--------------|
-----4--0-----0--2--------|--------0-----0--2--------|
-----------2--------------|-----4--------------------|
--0-----------------------|--0-----------------------|
--------------------------|--------------------------|


  E  E  E  E  E  E  E  E     E  E  E  E  E  E  E  E   
--------------------------|--------------------------|
-----------0--------------|--------0--1-----3--------|
--------2-----2--0-----0--|--2--------------------2--|
-----2--------------4-----|-----2--------2-----2-----|
--0-----------------------|--0-----------------------|
--------------------------|--------------------------|


  E  E  E  E  E  E  E  E     E  E  E  E  E  E  E  E   
--------------------3--2--|--------------------2--0--|
--0-----------------------|-----------3--------------|
-----4--0-----0--2--------|--------0-----0--2--------|
-----------2--------------|-----4--------------------|
--0-----------------------|--0-----------------------|
--------------------------|--------------------------|


  E  E  E  E  E  E  E  E     E  E  E  E  E  E  E  E     E  E  E  E  H         
--------------------------|--------------------------|--------------0--------|
-----------0--------------|--------------------------|--------------0--------|
--------2-----2--0--------|--------------0--------0--|--2-----0--2-----------|
-----2--------------2--0--|--3-----0--3--------3-----|-----------------------|
--0-----------------------|-----3-----------3--------|-----3-----------------|
--------------------------|--1-----------------------|--1--------------------|


  E  E  E  E  E  E  E  E     E  E  E  E  H         
--------------------------|-----------------------|
--------------------------|--0--------0--5--------|
--0--------0--2-----0--2--|--------2-----5--------|
-----0--2--------0--------|-----0-----------------|
--------------------------|-----------------------|
--3-----------------------|--3--------------------|

  1st Ending
  E  E   E  E  E  E  E  E  E  E  E  E  E  E  E  E   
-----0---------0--------0--------0--------0--------|
--------10--------8--------7--------5--------8-----|
------------0--------0--------0--------0--------0--|
---------------------------------------------------|
--0------------------------------------------------|
---------------------------------------------------|


  E  E   E  E  E  E  E  E  E  E  E  E  E  E  Q       
-----0---------0--------0--------0--------0--3-----||
--------10--------8--------7--------5--------------||
------------0--------0--------0--------0----------*||
--------------------------------------------------*||
--0------------------------------------------------||
---------------------------------------------------||


  2nd Ending                                      ^  ^      ^         
  E  E  E  E  E  E  E  E  E  E  E  Q    Q.        E  Q.     H         
--5--3-----------------------------------------|--x--x------x--------|
--------5--3--5--3--1-----1--------------------|--x--x------x--------|
-----------------------2-----2--0--2-----------|--x--x------x--------|
-----------------------------------2-----------|--x--x------x--------|
--0--------------------------------0-----------|--x--x------x--------|
-----------------------------------------------|--x--x------x--------|


                          ^                                      
  E  E  Q    Q    Q       W                   W                  
-----------------------|--0----------------|--L----------------||
-----------------------|--0----------------|--L----------------||
--2--2--2----1----1----|--2----------------|--L----------------||
--2--2--2----3----3----|--2----------------|--L----------------||
--0--0--0----1----1----|--0----------------|--L----------------||
-----------------------|-------------------|-------------------||




Duration Legend
---------------
W - whole
H - half
Q - quarter
E - 8th
S - 16th
T - 32nd
X - 64th
. - note dotted
|-n-|  - n-tuplets


Tablature Legend
----------------
L - tied note
x - dead note
s - legato slide
^ - brush up
        
Comments

@Omnicide (June 04, 2021 at 10:16 PM)

This song seems like an odd choice for a fingerstyle arrangement but it turned out pretty good.


@judgexii (June 07, 2021 at 9:09 PM)

This song is a great warmup for the fingers.. nice tab!


@chicharito (June 09, 2021 at 2:18 PM)

thank you, really appreciate it!