Gametabs
Home
Tabs
Random

Peter Stuyvesant's Theme

Average rating: 5.000

2 ratings

Composer:

Tabber:

Style:

Instrument:

Created: April 28, 2009 at 12:00 AM

            Peter Stuyvesant's Theme                           
~Colonization~
Composed by: Jeff Briggs 
Arranged by: Justin Lincoln

5th to G


     E  E  E  E  E  E  E  E     E  E  E  E  Q.     S S  
E||--------------------------|--------------3----------|
B||-----1-----0-----1-----0--|-----1-----0-----------3-|
G||-----0-----0-----0-----0--|-----0-----0-------------|
D||-----2-----0-----2-----0--|-----2-----0-------------|
G||--0-----0-----0-----0-----|--0-----0----------------|
E||--------------------------|-------------------------|


    E  S S S S S S E  E  E  S S    E  S S S S S S E  E  E  S S  
|---3--7-5-3-5-7-5-3--0--0------|--3--7-5-3-5-7-3-8--5--5------|
|-----------------------------3-|--------------------3-------3-|
|*-----0-------0------0-----0---|-----0-------0------------2---|
|*------------------------------|-----------------0-----0------|
|---0------0-------5-----5------|--0------0--------------------|
|-------------------------------|------------------------------|

                                1st Ending--------------
  E  S S S S S S E  E  E  E     E  S S E  E  E  E  E  S S    
--3--7-5-3-5-7-5-------8-----|--0---------7--8--5--5-------||
-----------------8--5-----5--|-----3-1-3--------3-------3--||
-----0-------0------5-----5--|-----0------0-----------2---*||
-----------------------------|---------------0-----0------*||
-----------------------------|--0------0-------------------||
--0------0-------5-----5-----|-----------------------------||

  2nd Ending---------------
  E  S S E  E  E  E  E  S S       E  S S T T S E  E  E  E  S S  
--0---------7--8--5--5--7-8-||---10----8-7-8-7-5--3--0--0--7-8-|
-----3-1-3--------3---------||---------------------------------|
-----0------0-----------7---||*----------------------0-----0---|
---------------0-----0------||*------0---------0---------------|
--0------0------------------||----0------0--------5-----5------|
----------------------------||---------------------------------|


   E  S S T T S S S E  E  E  S S     E  S S E  E  E  E  E  E   
--10----8-7-8-7-5-3-8--5--5--7-8-|--10----8-7--5--------8-----|
-----------------------3---------|----------------8--5-----5--|
-----------------------------7---|------0------0-----5-----5--|
------0---------0---0-----0------|----------------------------|
---0------0----------------------|----------------------------|
---------------------------------|---0------0-----5-----5-----|

  1st Ending----------------     2nd Ending-------------
  E  S S E  E  E  E  E  S S      E  S S E  E  E  E  E  E   
--0---------7--8--5--5--7-8--||--0---------7--8--5--3--2--|
-----3-1-3-------------------||-----3-1-3-----------------|
-----0------0-----5-----7---*||-----0------0-----5--4--2--|
---------------------0------*||---------------------0-----|
--0------0-------------------||--0------0-----------------|
---------------5-------------||---------------5-----------|


  E  E  E  E  E  E  E  E     E  E  E  E  H          
--3-----------------------|--------------3--------||
-----1-----0-----1-----0--|-----1-----0-----------||
-----0-----0-----0-----0--|-----0-----0-----------||
-----2-----0-----2-----0--|-----2-----0-----------||
--0-----0-----0-----0-----|--0-----0--------------||
--------------------------|-----------------------||




Duration Legend
---------------
W - whole
H - half
Q - quarter
E - 8th
S - 16th
T - 32nd
X - 64th
. - note dotted
|-n-|  - n-tuplets

        
Comments

@TheDoomOfAllFires (April 29, 2009 at 7:36 AM)

Great ! =D


@TrangOul (April 30, 2009 at 7:26 PM)

I have no idea why, but it reminds me of Monkey Island 2.