Gametabs
Home
Tabs
Random

Town, Flow Of Time, People

Average rating: 5.000

4 ratings

Composer:

Tabber:

Style:

Instrument:

Created: September 28, 2013 at 12:00 AM

            Town,Flow Of Time,People
Clannad
Composed by Jun Maeda 
Tabbed by Spellbound66623
9/20/13




e------------- (X2)   e---------------------------------------
B-7I------9I--        B-7I------9I-----------11I----6I------7I
G-------------        G---------------------------------------
D-------------        D---------------------------------------
A-------------        A---------------------------------------
E-------------        E---------------------------------------


(X3)
e-11-----------7--------11-------------------------------------
B----9---7--9--------------9---7--9---7--9---11--9--7----------
G--------------------------------------------------------------
D--------------------------------------------------------------
A--------------------------------------------------------------
E--------------------------------------------------------------



e-11----------------9----------------------9----
B----9---7--9----------7---6---7---6---7--------
G--------------8--------------------------------
D-----------------------------------------------
A-----------------------------------------------
E-----------------------------------------------



e----------------------------------------------------------------
B--------------------9----7----6----------------------------7----
G----------8----6-------------------6-------------8----9---------
D-6--------------------------------------6-----------------------
A----------------------------------------------------------------
E----------------------------------------------------------------



e--------------------11--9-----------9--7------------7----9----7----6-
B-7--9--11--9---------------7--------------7--------------------------
G-----------------------------------------------9---------------------
D---------------------------------------------------------------------
A---------------------------------------------------------------------
E---------------------------------------------------------------------



(I) Let Ring
        
Comments

@Tropical_SkyFly (September 29, 2013 at 11:11 PM)

sounds very interesting. nice job :)



@pigeon (May 11, 2021 at 10:36 PM)

nice job :D