Gametabs
Home
Tabs
Random

World Revolution

Average rating: 5.000

2 ratings

Composer:

Tabber:

Style:

Instrument:

Created: September 01, 2011 at 12:00 AM

            World Revolution
Chrono Trigger
Composer: Yasunori Mitsuda
Tabbed by Bacardibreezer
8/30/11

e|---------------------------------------------------------------|
B|------------11---10h11p10~------------9~-----11-----11-10-8~---|
G|---------8--------------------12--10---------------------------|
D|--10~----------------------------------------------------------|
A|---------------------------------------------------------------|
E|---------------------------------------------------------------|

e|---------------6---5h6p5~--------------------6--8~---|
B|------------------------------8--6--9~-----9---------|
G|--5--7--8~-------------------------------------------|
D|-----------------------------------------------------|
A|-----------------------------------------------------|
E|-----------------------------------------------------|

e|--15-----14-----------13------12----|
B|--13-----12-----------11------10----|
G|------------------------------------|
D|------------------------------------|
A|------------------------------------|
E|------------------------------------| x2

e|-----7-8-7-----------------------|-----7-8-7---------7-8-10-12---10~-|-----7-8-7------------------7-8-10-----------|
B|--10-------10-8-10-----8-10---8~-|--10-------10-8-10-----------------|--10-------10-8-10-----8-10-----------10-10--|
G|-------------------7-9-----------|-----------------------------------|-------------------7-9-----------------------|
D|---------------------------------|-----------------------------------|---------------------------------------------|
A|---------------------------------|-----------------------------------|---------------------------------------------|
E|---------------------------------|-----------------------------------|---------------------------------------------|

e|--15-----14-----------13------12----|
B|--13-----12-----------11------10----|
G|------------------------------------|
D|------------------------------------|
A|------------------------------------|
E|------------------------------------| x2

e|-----7-8-7-----------------------|-----7-8-7---------7-8-10-12---10~-|-----7-8-7------------------7-8-10-|
B|--10-------10-8-10-----8-10---8~-|--10-------10-8-10-----------------|--10-------10-8-10-----8-10--------|
G|-------------------7-9-----------|-----------------------------------|-------------------7-9-------------|
D|---------------------------------|-----------------------------------|-----------------------------------|
A|---------------------------------|-----------------------------------|-----------------------------------|
E|---------------------------------|-----------------------------------|-----------------------------------|

e|--------------------------------8-8----|
B|--10-10-----11-11-----10-10------------|
G|---------------------------------------|
D|---------------------------------------|
A|---------------------------------------|
E|---------------------------------------| x4

e|---------------------------------14~-------------------|
B|--11-10----9-------------16--18------------18--14~-----|
G|---------------------15----------------15--------------|
D|-------------------------------------------------------|
A|-------------------------------------------------------|
E|-------------------------------------------------------|

e|------------------------------------------------------------|
B|---------------------------------------16-------------------|
G|--18--17--16--15~---17~---15-17-18~-------17---15-17-18~----|
D|------------------------------------------------------------|
A|------------------------------------------------------------|
E|------------------------------------------------------------|

e|--------------14~---------------------------------------------------------------------------------|
B|------16--18-------------18--14~----------------------------------------------16------------------|
G|--15-----------------15------------------18--17--16--15~---17~---15-17-18~-------17---15-17-18----|
D|--------------------------------------------------------------------------------------------------|
A|--------------------------------------------------------------------------------------------------|
E|--------------------------------------------------------------------------------------------------|

e|--------------14---13--------------------------|
B|--16~----15------------------14---16---13~~----|
G|------------------------15---------------------|
D|-----------------------------------------------|
A|-----------------------------------------------|
E|-----------------------------------------------|

If repeating, start at third measure.




        
Comments

@Ranulf (September 01, 2011 at 10:20 PM)

Dang it! I was literally gonna try to tab this myself today, but then I saw this and I'm a sad puppy :( Nice tab, though :P