Gametabs
Home
Tabs
Random

Wind Scene

Average rating: 5.000

2 ratings

Composer:

Tabber:

Style:

Created: November 13, 2008 at 12:00 AM

                               Chrono Trigger - Wind Scene BASS TAB
                         Song by Yasunori Mitsuda

                  Tabbed by auriplane ([email protected])

There are a number of really good classical guitar arrangements
for this on GameTabs, but I thought I'd make a tab of just the
bass part :-)

Four-string bass, standard tuning.

    Intro

G |--------|
D |--------|
A |--------|
E |--------|

    Repeat back to here.

G |----------------|----------------|----------------|---------------|
D |----------------|--------3---2---|----------------|---------------|
A |5-----5---------|----3-----------|5-----5---------|3-------3------|
E |--------6-----6-|5---------------|--------3-----3-|------3--------|
                                                                    
G |----------------|----------------|----------------|---------------|
D |----------------|--------3---2---|----------------|---------------|
A |5-----5---------|----3-----------|5-----5---------|5--------------|
E |--------6-----6-|5---------------|--------3---5---|---------------|

    Rest for 24 measures and repeat.


Since this song is pretty easy, I also tabbed it in first position
in case you don't know positions yet or just prefer it that way:

G |----------------|----------------|----------------|---------------|
D |0-----0---------|--------3---2---|0-----0---------|---------------|
A |--------1-----1-|0---3-----------|----------------|3-------3------|
E |----------------|----------------|--------3-----3-|------3--------|
                                                                    
G |----------------|----------------|----------------|---------------|
D |0-----0---------|--------3---2---|0-----0---------|0--------------|
A |--------1-----1-|0---3-----------|------------0---|---------------|
E |----------------|----------------|--------3-------|---------------|



        
Comments

No comments yet