Gametabs
Home
Tabs
Random

Wind Scene

Average rating: 5.000

1 ratings

Composer:

Tabber:

Style:

Instrument:

Created: May 09, 2013 at 12:00 AM

            Wind Scene / 600 A.D.
Chrono Trigger
Composed by Yasunori Mitsuda
Tabbed by Ben Schuster
10/5/13

NOTE:
My mandolin when tabbing this was tuned down a couple pitches (as it is a Serbian mandolin
and not designed for American tuning), so the tune may be slightly out of key.
Should sound fine otherwise.

E|-0--2--3-2------0--0-----------------------2-3------|
A|------------5-2------5-2----0-2-0------2-5-----5----|
D|--------------------------5--------4-5--------------|
G|----------------------------------------------------|

E|----2--3-2------0--0-----------------------2-0---0-0|
A|------------5-2------5-2----0-2-0------2-5-----5----|
D|--------------------------5--------4-5--------------|
G|----------------------------------------------------| x2 from start

E|-7-7--5-3-2--3-5-2---------------------0-2--3-5-2---------------|
A|--------------------5-2-0-2-0-2-5-3--5-------------5-2-0-2-0-2-5|
D|----------------------------------------------------------------|
G|----------------------------------------------------------------|

E|-7-7--5-3-2--3-5-7--5-3-2-0-2-0-2-3---7-5-3-2-0---0-2-----------|
A|------------------------------------------------6---------------|
D|----------------------------------------------------------------|
G|----------------------------------------------------------------|
(Hold the final note for as long as desired, or repeat from beginning)
        
Comments

No comments yet