Gametabs
Home
Tabs
Random

Underground Sewers

Average rating: No ratings

Composer:

Tabber:

Style:

Instrument:

Created: September 01, 2011 at 12:00 AM

            Underground Sewer 
Chrono Trigger
Composer: Yasunori Mitsuda
Tabbed by Bacardibreezer
8/30/11

Tabbed for solo guitar

e|-----------------------------------------|-----------------------------------------|
B|--------12~-----13-12--------------12~---|--------12~------------------------12~---|
G|-----12-------------------------11-------|-----11---------14-12-11--------12-------|
D|--14------------------14-----13----------|--13-------------------------14----------|
A|-----------------------------------------|-----------------------------------------|
E|-----------------------------------------|-----------------------------------------|

e|-----------------------------------------|------------------------------------------------------------|
B|--------12~-----15-13-12-----------13~---|--17-15-13----12-------------12-----------------------------|
G|-----12-------------------------14-------|--------------------11-11-14----14-12--11-------------------|
D|--14-------------------------14----------|-----------------13-----------------------14----------------|
A|-----------------------------------------|---------------------------------------------14----14-------|
E|-----------------------------------------|------------------------------------------------15----12~---|

e|---------------------15-14-12-11---12-14-12~--|--12-14-15-----------------15-14-12-11--11h12p11----11-12~---|
B|-----12-13-12-11~-----------------------------|-----------12-13-12-11~--------------------------14----------|
G|--12------------------------------------------|-------------------------------------------------------------|
D|----------------------------------------------|-------------------------------------------------------------|
A|----------------------------------------------|-------------------------------------------------------------|
E|----------------------------------------------|-------------------------------------------------------------| x2

e|--------------------------------------------------|
B|-----------------------------------------17-16~---|
G|--14~----12-11------------------17~---18----------|
D|---------------14-13-14---------------------------|
A|------------------------14~-----------------------|
E|--------------------------------------------------|

e|--------------------------------------------------|
B|--13~----12----------12---------17~---19-20-19~---|
G|------------14-12-11------------------------------|
D|------------------------13~-----------------------|
A|--------------------------------------------------|
E|--------------------------------------------------|


        
Comments

No comments yet