Gametabs
Home
Tabs
Random

Tyrano Lair

Average rating: 5.000

3 ratings

Composer:

Tabber:

Style:

Instrument:

Created: September 22, 2008 at 12:00 AM

                              Chrono Trigger - Tyrano Lair BASS TAB
                     "Tyrano Lair" by Nobuo Uematsu

                 Tabbed by auriplane ([email protected])

This song sounds best in standard tuning, I think, but the intro has a
low D, so I've tabbed it two ways: 

    1. Four-string, drop-D
    2. Five-string, standard tuning
    
For the second tab, since only the intro requires the low B string, I
left it off of the rest of the tabs (so it can be played on a four
string).

Technically, the part with the low D isn't a bass part, it's an organ;
the rest of the song is the actual bass part.  But it sounds cool on a
bass :-)  Also, this song sounds like it is played on a fretless, in
the game.


                     Four-string bass, drop-D tuning.

G |----------------|----------------|----------------|----------------|
D |----------------|----------------|----------------|----------------|
A |----------------|----------------|--------------0-|1---3---5-------|
D |5---------------|----------------|------------5---|------------4---|

G |----------------|----------------|----------------|----------------|
D |----------------|----------------|----------------|----------------|
A |----------------|----------------|----------------|----------------|
D |5---------------|----------------|7---------------|0-----2-----4---|

G |----------------|----------------|----------------|----------------|
D |----------------|----------------|----------------|----------------|
A |----------------|----------------|--------------0-|1---3---1-0-----|
D |5---------------|----------------|------------5---|------------5-3-|

G |----------------|----------------|----------------|----------------|
D |----------------|--------5-------|----------------|----------------|
A |------------3---|----------------|------------5---|----------------|
D |1---------------|----------------|----------------|5---------------|

Repeat 2x:

G |----------------|----------------|----------------|----------------|
D |----------------|----------5-----|----------------|----------8-----|
A |----------------|----------------|----------------|----------------|
D |5---5-5-5---5-5-|5---5-5-5---5-5-|8---8-8-8---8-8-|8---8-8-8---8-8-|

G |----------------|----------------|----------------|----------------|
D |----------------|----------------|--------8-------|--6-------------|
A |4---4-4-4---4-4-|4---4-4-4-------|----------------|----8-6-4-6-----|
D |----------------|----------6---7-|8---8-----------|------------6-7-|

Repeat 2x:

G |----------------|----------------|----------------|----------------|
D |----------------|----2-4-2-1---1-|----------------|----1-2-3-------|
A |----------4-1-2-|--2-------------|----------4-1-2-|--2-------3-----|
D |2--22-2-2-------|----------------|2--22-2-2-------|--------------5-|

G |----------------|----------------|----------------|--------6-6-----|
D |----------------|----2-4-2-1---0-|----------------|------------6---|
A |----------4-1-2-|--2-------------|4-----4-1---2-3-|4---4---------4-|
D |2--22-2-2-------|----------------|----------------|----------------|

No repeat:

G |------------------------|------------------------|
D |------------------------|------------------------|
A |3----------------------/15-----------------------|
D |------------------------|------------------------|

G |------------|-----------|------------|-----------|
D |----------  ( Rest for four measures )  ---------|
A |------------|-----------|------------|-----------|
D |------------|-----------|------------|-----------|

G |------------------------|-------------------16/18\16     <-- 16th notes
D |------------------------|------------------------|
A |------------------------|------------------------|
D |------------------------|------------------------|
                                                    
G \16----------------14----|------------------------|
D |------------------------|18----16-14----16-18----|
A |------------------------|------------------------|
D |------------------------|---------------------18-|

G |------------------------|------------------------|
D |------------------------|------------------------|
A |16----------------------|----------------19--18--|       <-- Triplets
D |------------------17----|18----------19----------|

G |------------------------|18--16--14--------------|
D |------------------17----|------------18--16--14--|       <-- Triplets
A |16----------------------|------------------------|
D |------------------------|------------------------|

G |------------------------|13----------------------|
D |13----------------------|---------------------1011       <-- 16th notes
A |------------------------|------------------------|
D |------------------------|------------------------|

G |------------------------|------------------------|
D |12----------------------|---6-----------7--------|
A |------------------------|------------------------|
D |---------------------5--|6--------6--7--------7--|



                     Five-string bass, standard tuning:

G |----------------|----------------|----------------|----------------|
D |----------------|----------------|----------------|----------------|
A |----------------|----------------|----------------|----3---5-------|
E |3---------------|----------------|------------3-5-|6-----------2---|
B |----------------|----------------|----------------|----------------|

G |----------------|----------------|----------------|----------------|
D |----------------|----------------|----------------|----------------|
A |----------------|----------------|----------------|----------------|
E |3---------------|----------------|5---------------|------------2---|
B |----------------|----------------|----------------|3-----5---------|

G |----------------|----------------|----------------|----------------|
D |----------------|----------------|----------------|----------------|
A |----------------|----------------|----------------|----3-----------|
E |3---------------|----------------|------------3-5-|6-------6-5-3---|
B |----------------|----------------|----------------|--------------6-|

G |----------------|----------------|----------------|----------------|
D |----------------|--------5-------|----------------|----------------|
A |------------3---|----------------|------------5---|----------------|
E |----------------|----------------|----------------|3---------------|
B |4---------------|----------------|----------------|----------------|

Repeat 2x:

G |----------------|----------------|----------------|----------------|
D |----------------|----------5-----|----------------|----------8-----|
A |----------------|----------------|----------------|----------------|
E |3---3-3-3---3-3-|3---3-3-3---3-3-|6---6-6-6---6-6-|6---6-6-6---6-6-|
B |----------------|----------------|----------------|----------------|

G |----------------|----------------|----------------|----------------|
D |----------------|----------------|--------8-------|--6-------------|
A |4---4-4-4---4-4-|4---4-4-4-------|----------------|----8-6-4-6-----|
E |----------------|----------4---5-|6---6-----------|------------4-5-|
B |----------------|----------------|----------------|----------------|

Repeat 2x:

G |----------------|----------------|----------------|----------------|
D |----------------|----2-4-2-1---1-|----------------|----1-2-3-------|
A |----------4-1-2-|--2-------------|----------4-1-2-|--2-------3-----|
E |0--00-0-0-------|----------------|0--00-0-0-------|--------------3-|
B |----------------|----------------|----------------|----------------|

G |----------------|----------------|----------------|--------6-6-----|
D |----------------|----2-4-2-1---0-|----------------|------------6---|
A |----------4-1-2-|--2-------------|4-----4-1---2-3-|4---4---------4-|
E |0--00-0-0-------|----------------|----------------|----------------|
B |----------------|----------------|----------------|----------------|

No repeat:

G |------------------------|------------------------|
D |------------------------|------------------------|
A |3----------------------/15-----------------------|
E |------------------------|------------------------|
B |------------------------|------------------------|

G |------------|-----------|------------|-----------|
D |------------------------|------------------------|
A |----------  ( Rest for four measures )  ---------|
E |------------|-----------|------------|-----------|
B |------------|-----------|------------|-----------|

G |------------------------|-------------------16/18\16     <-- 16th notes
D |------------------------|------------------------|
A |------------------------|------------------------|
E |------------------------|------------------------|
B |------------------------|------------------------|
                                                    
G \16----------------14----|------------------------|
D |------------------------|18----16-14----16-18----|
A |------------------------|------------------------|
E |------------------------|---------------------16-|
B |------------------------|------------------------|

G |------------------------|------------------------|
D |------------------------|------------------------|
A |16----------------------|----------------19--18--|       <-- Triplets
E |------------------15----|16----------17----------|
B |------------------------|------------------------|

G |------------------------|18--16--14--------------|
D |------------------17----|------------18--16--14--|       <-- Triplets
A |16----------------------|------------------------|
E |------------------------|------------------------|
B |------------------------|------------------------|

G |------------------------|13----------------------|
D |13----------------------|---------------------1011       <-- 16th notes
A |------------------------|------------------------|
E |------------------------|------------------------|
B |------------------------|------------------------|

G |------------------------|------------------------|
D |12----------------------|---6-----------7--------|
A |------------------------|------------------------|
E |---------------------3--|4--------4--5--------5--|
B |------------------------|------------------------|


        
Comments

@dfas (September 25, 2008 at 1:33 AM)

cool, i'm going to try it on my cousin's base. thanks.


@Alexander (May 18, 2009 at 10:26 PM)

This one's fun.


@Alexander (May 18, 2009 at 10:39 PM)

|--------6-6-----|
|----------------|
|4---4-------4-4-|
|----------------|
``` I'd add a hammer-on from 5 to 6 there if it'd fit.

@mrjordak2 (July 29, 2014 at 12:06 AM)

Pretty sure the second 6 in this part:

G |--------6-6-----|
D |----------------|
A |4---4-------4-4-|
D |----------------|

is actually a 6 on the D string, like this:

G |--------6-------|
D |----------6-----|
A |4---4-------4-4-|
D |----------------|

Still, fantastic tab overall :)

(Sorry if the tab parts I included come out looking like crap, I'm not too good with formatting that correctly, hopefully it'll be obvious what I mean).


@meteor (August 18, 2014 at 11:37 PM)

You make amazing tabs.