Gametabs
Home
Tabs
Random

The Day the World Revived

Average rating: 5.000

8 ratings

Composer:

Tabber:

Style:

Instrument:

Created: April 14, 2009 at 12:00 AM

            Chrono Trigger - The Day The World Revived
Arranged by TheDoomOfAllFires; 04/14/2009

BPM=60

Drop-D tuning
Capo=1

Hope you like it ! ^^


      E  E  E  E  H           E  E  E  E  Q    E  E   
E||------------------------|-----------0-------------|
B||---3-----------1--------|--3----------------------|
G||*--------2-----0--------|--------------2-------2--|
D||*--------0--2-----------|--------0--2--3----2--0--|
A||------0-----------------|-----0-------------------|
D||---0--------------------|--0----------------------|


  E  E  E  E  E  E  E  S S    Q    E  E  H           
---------------------------|-----------------------||
--1-----------0------------|-----------------------||
-----------2--------0------|----------------------*||
--------3--------0-------0-|--2-------------------*||
-----3-----3-----------2---|--0----2--3--L---------||
--3-----------5------------|-----------------------||


  E  E  E  S  S E  E  E  E     E  E  E  E  H             E  E  E  E  H         
----------------------------|-----------------------||------------------------|
--1--------3p-1-0-----------|-----------0-----------||---3-----------1--------|
----------------------0-----|--2-----2-----2--------||*--------2-----0--------|
--------3----------0--------|-----2-----------------||*--------0--2-----------|
-----3-------------------2--|--0--------------------||------0-----------------|
--3--------3----5-----------|-----------------------||---0--------------------|


  E  E  E  E  Q    E  E     E  E  E  E  E  E  E  S S    Q    E  E  H           
-----------0-------------|---------------------------|-----------------------||
--3----------------------|--1-----------0------------|-----------------------||
--------------2-------2--|-----------2--------0------|----------------------*||
--------0--2--3----2--0--|--------3--------0-------0-|--2-------------------*||
-----0-------------------|-----3-----3-----------2---|--0----2--3--L---------||
--0----------------------|--3-----------5------------|-----------------------||


  E  E  E  S  S E  E  E  E     E  E  E  E  H           E  E  E  E  H         
----------------------------|-----------------------|-----------------------|
--1--------3p-1-0-----------|-----------0-----------|--3-----------1--------|
----------------------0-----|--2-----2-----2--------|--------2-----0--------|
--------3----------0--------|-----2-----------------|--------0--2-----------|
-----3-------------------2--|--0--------------------|-----0-----------------|
--3--------3----5-----------|-----------------------|--0--------------------|


  E  E  E  E  Q    E  E     E  E  E  E  E  E  E  S S    Q    E  E  H          
-----------0-------------|---------------------------|----------------------||
--3----------------------|--1-----------0------------|----------------------||
--------------2-------2--|-----------2--------0------|----------------------||
--------0--2--3----2--0--|--------3--------0-------0-|--2-------------------||
-----0-------------------|-----3-----3-----------2---|--0----2--3--L--------||
--0----------------------|--3-----------5------------|----------------------||




Duration Legend
---------------
W - whole
H - half
Q - quarter
E - 8th
S - 16th
T - 32nd
X - 64th
. - note dotted
|-n-|  - n-tuplets


Tablature Legend
----------------
L - tied note
x - dead note
g - grace note
(n) - ghost note
> - accentuded note
NH - natural harmonic
AH - artificial harmonic
TH - tapped harmonic
SH - semi harmonic
PH - pitch harmonic
h - hammer on
p - pull off
b - bend
br - bendRelease
pb - preBend
pbr - preBendRelease
brb - bendReleaseBend
\n/ - tremolo bar dip
\n - tremolo bar dive
-/n - tremolo bar Release up
/n\ - tremolo bar inverted dip
/n - tremolo bar return
-\n - tremolo bar Release down
S - shift slide
s - legato slide
/ -  slide into from below or out of upwards
\ -  slide into from above or out of downwards
~ - vibrato
W - wide vibrato
tr - trill
TP - tremolo picking
T - tapping
S - slap
P - pop
< - fade in
^ - brush up
v - brush down

        
Comments

@auriplane (April 15, 2009 at 3:31 AM)

More like "The Day The World Died". 世界最期の日 is the actual title.

Cool tab ^-^


@xxtazy (November 26, 2014 at 10:16 PM)