Gametabs
Home
Tabs
Random

Schala's Theme

Average rating: 3.667

3 ratings

Composer:

Tabber:

Style:

Instrument:

Created: November 11, 2010 at 12:00 AM

            Schala's Theme (melody only)
Chrono Trigger
Composer: Yasunori Mitsuda
Tabbed by: BacardiBreezer
11/9/10

e|--18~---16~---13~---11~---9~---8~---6~-----|
B|-------------------------------------------|
G|-------------------------------------------|
D|-------------------------------------------|
A|-------------------------------------------|
E|-------------------------------------------|

e|--11~---9----13---------------------11----------------18--16--14--13~---|
B|----------11----14---13h14p13----14----------11~----11------------------|
G|-----------------------------------------13~----------------------------|
D|------------------------------------------------------------------------|
A|------------------------------------------------------------------------|
E|------------------------------------------------------------------------|

e|--11~---9----13---------------------11----------------------------------|
B|----------11----14---13h14p13----14----------11----13h14h13h11------11~-|
G|-----------------------------------------13----------------------13-----|
D|------------------------------------------------------------------------|
A|------------------------------------------------------------------------|
E|------------------------------------------------------------------------|


        
Comments

No comments yet