Gametabs
Home
Tabs
Random

Robo's Theme

Average rating: No ratings

Composer:

Tabber:

Style:

Instrument:

Created: February 08, 2009 at 12:00 AM

                                Chrono Trigger - Robo's Theme BASS TAB
                           Song by Yasunori Mitsuda
  
                    Tabbed by auriplane ([email protected])

Four-string bass, standard tuning.

                - Rest for four measures at the beginning -

  G |----------------|----------------|----------------|----------------|
  D |----------------|----------------|----------------|----------------|
  A |----------------|2-222-222-22----|----------------|5-555-555-555-55|
  E |3-333-335-555-55|------------5-55|3-333-335-555-55|----------------|

  G |----------------|----------------|----------------|----------------|
  D |----------------|----------------|----------------|----------------|
  A |----------------|2-222-222-22----|----------------|2-222-222-222-22|
  E |3-333-335-555-55|------------5-55|3-333-335-555-55|----------------|

  G |----------------|----------------|----------------|----------------|
  D |----------------|----------------|----------------|----------------|
  A |5-555-55--------|----------------|5-555-55--------|----------------|
  E |--------2-222-22|3-333-335-555-55|--------2-222-22|3-333-335-555-55|

  G |----------------|----------------|----------------|----------------|
  D |----------------|----------------|----------------|----------------|
  A |2-222-222-2-----|----------------|2-222-222-222-22|2-222-222-222-22|
  E |-----------22-22|3-333-335-555-55|----------------|----------------|

        
Comments

No comments yet