Gametabs
Home
Tabs
Random

Robo's Theme

Average rating: 4.600

5 ratings

Composer:

Tabber:

Style:

Instrument:

Created: October 03, 2007 at 12:00 AM

            Robo's Theme
Chrono Trigger
Composed by Yasunori Mitsuda

8/20/06

e------0-0----0-0-0--2-2--0-------0-0----------------
B--3-3-----------------------3-3--------3-2----------
G-------------------------------------------2--------
D----------------------------------------------------
A----------------------------------------------------
E----------------------------------------------------

e------0-0---0-0-0---5-2-0--------0-0------
B--3-3-----------------------3-3----------0
G--------------------------------------2---
D------------------------------------------
A------------------------------------------
E------------------------------------------

e-----------------------------------------------------------------------------
B--------------------------------------------------------------------0--------
G--------0-2---2-2-0---------------0-2---------------------0-2---2-2---2-2-0--
D--0-4-4-------------4-2---0h2-4-4-----------------0h2-4-4-------------------4
A----------------------------------------0-2---4------------------------------
E-----------------------------------------------------------------------------

        
Comments

@Kai (May 31, 2007 at 8:02 PM)

Robo's never gonna give you up.


@Martek (July 20, 2007 at 9:19 AM)

Sounds greate


@Anonymous (December 01, 2007 at 4:26 AM)

Sounds good and is actually playable. In a world where the great majority of tabs tell you to hit frets that don't exist, this is a damn good tab. I want your children.


@Enterim (March 17, 2008 at 12:01 AM)

We're no strangers to love.


@archard (March 17, 2008 at 12:36 AM)

OMG! I never realized that before. WTF it sounds just like it


@Matt (April 05, 2008 at 4:59 PM)

nice tabs


@Hypoxia (June 06, 2008 at 10:54 PM)

..OMG. We've been Rick Roll'd since 1995 by Square...Those sneaky bastards.