Gametabs
Home
Tabs
Random

Robo Gang Johnny

Average rating: 5.000

1 ratings

Composer:

Tabber:

Style:

Instrument:

Created: August 05, 2012 at 12:00 AM

            Robo Gang Johnny
Chrono Trigger
Composed by Yasunori Mitsuda
Tabbed by hslesperance
8/5/12

Standard Tuning


    Q  q  q  E E   E E E E E E E E   Q  q  q  E E   E E H.
||-----3--0------|-----------0-3-0-|----3--0------|------------||
||o------------2-|-3-2-3-2-3-------|----------2-3-|---0-------o||
||---------------|-----------------|--------------|------------||
||---------------|-----------------|--------------|------------||
||o--------------|-----------------|--------------|-----------o||
||---------------|-----------------|--------------|------------||


  E a Q  E E Q  a E   +E  E E E a E E E E   E E E E E E E E   Q  Q  E a Q  S S
|------------3--3s5-|-(5)-5-3-5-5s7-5-3-5-|-0-----5-6-7-----|---------5h7--5----|
|---3s5--3-5--------|---------------------|---5-8-------8-5-|-------5--------8--|
|-------------------|---------------------|-----------------|-7--8--------------|
|-------------------|---------------------|-----------------|-------------------|
|-------------------|---------------------|-----------------|-------------------|
|-------------------|---------------------|-----------------|-------------------|


  E a Q  E E Q  a E   +E  E E E a E E E E   e E E E E E E E   E E +H.
|------------3--3s5-|-(5)-5-3-5-5s7-5-3-5-|-0-----5-6-7-----|------------*|
|-5-3s5--3-5--------|---------------------|---5-8-------8-5-|------------*|
|-------------------|---------------------|-----------------|---7-(7)----*|
|-------------------|---------------------|-----------------|------------*|
|-------------------|---------------------|-----------------|------------*|
|-------------------|---------------------|-----------------|------------*|

h - hammer on
s - slide

H - half
Q - quarter
E - 8th
S - 16th
a - acciaccatura
+ - note tied to previous
. - note dotted

Uncapitalized letters represent notes that are staccato (1/2 duration)
        
Comments

No comments yet