Gametabs
Home
Tabs
Random

Robo Gang Johnny

Average rating: 5.000

1 ratings

Composer:

Tabber:

Style:

Instrument:

Created: September 28, 2008 at 12:00 AM

                           Chrono Trigger - Robo Gang Johnny BASS TAB
                        Song by Yasunori Mitsuda

                 Tabbed by auriplane ([email protected])


Four-string bass, standard tuning.

    Part A

G |----------------|----------------|----------------|----------------|
D |----------------|--------8h9-8h9-|----------------|----------------|
A |7-----7---------|7-----7---------|7-----7---------|7---------------|
E |--------7-----7-|----------------|--------7-----7-|----------------|

Repeat 4x:

G |----------------|----------------|
D |----------------|--------8h9-8h9-|
A |7-----7---------|7-----7---------|
E |--------7-----7-|----------------|

No repeat:

G |----------------|----------------|----------------|----------------|
D |----------------|----------------|----5-7-8-9-5---|----------------|
A |--------7-----7-|--------9-----9-|--7-----------7-|5---6---7-------|
E |5-----5---------|7-----7---------|----------------|--------------76|

G |----------------|----------------|----------------|----------------|
D |----------------|----------------|----5-7-8-9-5---|--9-------------|
A |--------7-----7-|--------9-----9-|--7-----------7-|----------------|
E |5-----5---------|7-----7---------|----------------|----5-6-7-------|

        
Comments

@PhonixDown26 (July 01, 2012 at 2:44 AM)

Great job mate.