Gametabs
Home
Tabs
Random

Presentiment

Average rating: 5.000

4 ratings

Composer:

Tabber:

Style:

Instrument:

Created: October 20, 2007 at 12:00 AM

                                            A Premonition                                   


                      Fade in....
                          |---3---|   |---3---|   |---3---|   |---3---|   
     W                    E   E   E   E   E   E   E   E   E   E   E   E   
E||-------------------|--10----------------------10----------------------|
B||-------------------|------10--------------10------10--------------10--|
G||-------------------|----------12------12--------------12------12------|
D||-------------------|--------------12----------------------12----------|
A||-------------------|--------------------------------------------------|
E||-------------------|--------------------------------------------------|


   |---3---|   |---3---|   |---3---|   |---3---|   
   E   E   E   E   E   E   E   E   E   E   E   E   
--10----------------------10----------------------|
------10--------------10------10--------------10--|
----------12------12--------------12------12------|
--------------12----------------------12----------|
--------------------------------------------------|
--------------------------------------------------|


   |---3---|   |---3---|   |---3---|   |---3---|   
   E   E   E   E   E   E   E   E   E   E   E   E   
--10----------------------10----------------------|
------10--------------10------10--------------10--|
----------12------12--------------12------12------|
--------------12----------------------12----------|
--------------------------------------------------|
--------------------------------------------------|


   |---3---|   |---3---|   |---3---|   |---3---|   
   E   E   E   E   E   E   E   E   E   E   E   E   
--10---L---L--10---L--10--10---L--10--10--10--10--|
--10---L---L--10---L--10--10---L--10--10--10--10--|
--12---L---L--12---L--12--12---L--12--12--12--12--|
--12---L---L--12---L--12--12---L--12--12--12--12--|
---------------------------0---L---0---0---0---0--|
--------------------------------------------------|


   |---3---|   |---3---|   |---3---|   |---3---|   
   E   E   E   E   E   E   E   E   E   E   E   E   
--10---L--10--10--10--10--10---L--10--10--10--10--|
--10---L--10--10--10--10--10---L--10--10--10--10--|
--12---L--12--12--12--12--12---L--12--12--12--12--|
--12---L--12--12--12--12--12---L--12--12--12--12--|
--12---L--12--12--12--12--12---L--12--12--12--12--|
--10---L--10--10--10--10--10---L--10--10--10--10--|


   |---3---|   |---3---|   |---3---|   |---3---|   
   E   E   E   E   E   E   E   E   E   E   E   E   
--12---L--12--12--12--12--12---L--12--12---L--12--|
--10---L--10--10--10--10--10---L--10--10---L--10--|
---9---L---9---9---9---9---9---L---9---9---L---9--|
---9---L---9---9---9---9---9---L---9---9---L---9--|
---9---L---9---9---9---9---9---L---9---9---L---9--|
--------------------------------------------------|


   |---3---|   |---3---|   |---3---|   |---3---|   
   E   E   E   E   E   E   E   E   E   E   E   E   
---0---L---0---0---0---0---0---L---0---0---0---0--|
--10---L--10--10--10--10--10---L--10--10--10--10--|
---7---L---7---7---7---7---7---L---7---7---7---7--|
---7---L---7---7---7---7---7---L---7---7---7---7--|
---8---L---8---8---8---8---8---L---8---8---8---8--|
--------------------------------------------------|


   |--3--|  |--3--|   |--3--|  |--3--|   
   E  E  E  E  E  E   E  E  E  E  E  E   
---0------------------------------------|
--10--------------L--10-----------------|
---7--9--7-----7--9------9--7-----7--9--|
---7-----L--7------------------7--------|
---8------------------------------------|
----------------------------------------|

Fade out....
   |--3--|  |--3--|   |--3--|  |--3--|   
   E  E  E  E  E  E   E  E  E  E  E  E   
---L------------------------------------|
--10-----------------10-----------------|
------9--7-----7--9------9--7-----7--9--|
------------7------------------7--------|
---L------------------------------------|
----------------------------------------|


   |--3--|  |--3--|   |--3--|  |--3--|    
   E  E  E  E  E  E   E  E  E  E  E  E    
----------------------------------------||
--10-----------------10-----------------||
------9--7-----7--9------9--7-----7--9--||
------------7------------------7--------||
----------------------------------------||
----------------------------------------||


Note - The strumming pattern in this tab is just a suggestion.
Strum however it feels right to you.

Note #2 - If you want to be really tricky, you can tap the guitar
with your thumbnail/pinky nail while playing the arpeggios at the
beginning to mimic the clock ticking in the game.


Duration Legend
---------------
W - whole
H - half
Q - quarter
E - 8th
S - 16th
T - 32nd
X - 64th
. - note dotted
|-n-|  - n-tuplets

L - Tied Note

        
Comments

@archard (October 20, 2007 at 8:48 PM)

This tab looks really familiar... maybe I've seen it on your freewebs site before.

Either way, nice job!


@Anonymous (October 28, 2007 at 6:56 PM)

whats a tied note?


@musenji (October 19, 2014 at 12:16 PM)

I dunno about splitting up those chords into rhythms but I guess you can't sustain them. Maybe with a clean electric.