Gametabs
Home
Tabs
Random

Morning Sunlight

Average rating: 3.667

3 ratings

Composer:

Tabber:

Style:

Instrument:

Created: September 29, 2007 at 12:00 AM

            Morning Sunlight
Chrono Trigger
Composed by Yasunori Mitsuda

8/19/06

e--------3--0-----------------------------3--5-----7--------
B--1--3--------------0--------------1--3--------------------
G------------------------2----------------------------------
D-----------------------------------------------------------
A-----------------------------------------------------------
E-----------------------------------------------------------

e--7--3----------5-3--------------------0
B--------------------1--3--------3-------
G----------------------------------------
D----------------------------------------
A----------------------------------------
E----------------------------------------

        
Comments

@jon (February 14, 2007 at 5:52 PM)

hehe what an weird tune the tab,im not saying its bad,i just wasnt expecting it.... very cool thought i say 4 outa 5


@sikera (July 08, 2007 at 1:17 PM)

haha this is a good one man =]