Gametabs
Home
Tabs
Random

Millennial Fair

Average rating: 5.000

22 ratings

Composer:

Tabber:

Style:

Instrument:

Created: October 03, 2007 at 12:00 AM

            Millennial Fair
Chrono Trigger
Composed by: Yasunori Mitsuda
Arranged by: Justin Lincoln (Kabukibear)
Get this and more @ www.kabukibear.com

Guitar

Dropped D Tuning

                    |-3-|
      E   S S E  E  S S S  E     E.  S E  E  E  E     E  E  E  E  E  E
E||--10-------7--8--7-8-7-----|--3-----5--2--------|--0--2--3--3--5--7--|
B||------10---------------10--|-----------------3--|-----------0-----0--|
G||---------------------------|--------------------|--0-----0--0-----0--|
D||-----------0-----0---------|--------0-----0-----|--------------------|
A||---------0--------------0--|------0----------0--|--3-----3-----------|
D||---0----------0------------|--0--------0--------|-----------5-----5--|

  E.  S E  Q    E       E  S S S S E  E  E     E  S S S S E  E  E
--5---5-5--5-------||---2----2---2-3--2--0--|--2----2---2-3--2--0--|
--5---5-5--5-------||---3----3---3-3--3--2--|--3----3---3-3--3--2--|
--6---6-6--6-------||*--2----2---2-2--2--2--|--2----2---2-2--2--2--|
-------------------||*---------0---------0--|---------0---------0--|
--0---0-0--0-------||------0----------0-----|-----0----------0-----|
-------------------||---0----------0--------|--0----------0--------|

  E  S S S S E  E  E     E  S S S S E  E  E       E  S S S S E  E  S S
--2----2---2-3--2--0--|--2----2---2-3--2--0--||---5----3---2-0-------0-|
--3----3---3-3--3--2--|--3----3---3-3--3--2--||--------------------3---|
--2----2---2-2--2--2--|--2----2---2-2--2--2--||*-----------------------|
---------0---------0--|---------0---------0--||*---------0---------0---|
-----0----------0-----|-----0----------0-----||------0----------0------|
--0----------0--------|--0----------0--------||---0----------0---------|

  S S S S S S E  E  E     E  S S S S E  S S S S    E  E  E  E  E  E
--2-3-2-0--------------|------------------------|--------------------|
------------3----------|--1----3---1-0----1---0-|--------------------|
--------------2--------|---------2----------2---|--2-----0--2--------|
----------0---------0--|-----2----------2-------|--------0--------0--|
------0----------0-----|--0----------0----------|-----0--------0-----|
--0-----------0--------|------------------------|--0--------0--------|

  E  S S S S E  E  S S    S S S S S S E  E  E     E  S S S S E  S S S S
--5----3---2-0-------0-|--2-3-2-0--------------|-------------0----2---3-|
-------------------3---|------------3----------|--1----3---1------------|
-----------------------|--------------2--------|---------2----------2---|
---------0---------0---|----------0---------0--|-----2----------2-------|
-----0----------0------|------0----------0-----|--0----------0----------|
--0----------0---------|--0-----------0--------|------------------------|

  E  E  E  S S S S S S    E  S S S S E  E  S S    S S S S S S E  E  E
--2-----0--2-----------|--5----3---2-0-------0-|--2-3-2-0--------------|
-----------------------|-------------------3---|------------3----------|
-------------0---------|-----------------------|--------------2--------|
--------0------4-2-0---|---------0---------0---|----------0---------0--|
-----0---------------0-|-----0----------0------|------0----------0-----|
--0--------0-----------|--0----------0---------|--0-----------0--------|

  E  S S S S E  S S S S    E  E  E  E  E  E     E  S S S S E  E  S S
------------------------|--------------------|--5----3---2-0-------0-|
--1----3---1-0----1---0-|--------------------|-------------------3---|
---------2----------2---|--2-----0--2--------|-----------------------|
-----2----------2-------|--------0--------0--|---------0---------0---|
--0----------0----------|-----0--------0-----|-----0----------0------|
------------------------|--0--------0--------|--0----------0---------|

  S S S S S S E  E  E     E  S S S S E  S S S S    E  E  E  S S S S S S
--2-3-2-0--------------|-------------0----2---3-|--2-----0--2-----------|
------------3----------|--1----3---1------------|-----------------------|
--------------2--------|---------2----------2---|-------------0-------0-|
----------0---------0--|-----2----------2-------|--------0------4-2-4---|
------0----------0-----|--0----------0----------|-----0-----------------|
--0-----------0--------|------------------------|--0--------0-----------|

  E  S E  S E  E  E     E  S E  S E  E  E     S S S S S S S S S S S S
------------0--0--0--|------------0--0--0--|--3-------5---2---0-------|
-----3----3-2--2--2--|-----3----3-2--2--2--|------0---------------3---|
-----4----4-2--2--2--|-----4----4-2--2--2--|----0---0---0---2---2---2-|
-----5----5----------|-----5----5----------|------0---------------0---|
------------0--0--0--|------------0--0--0--|------------------0-------|
--5----5-------------|--5----5-------------|--5-----------0-----------|

  S S S S S S S S S S S S    E  S E  S E  E  E     E  S E  S E  E  E
--0-----------------------|------------0--0--0--|------------0--0--0--|
--------2---3-2---0-------|-----3----3-2--2--2--|-----3----3-2--2--2--|
------2---------------2---|-----4----4-2--2--2--|-----4----4-2--2--2--|
----2-----------2---2---2-|-----5----5----------|-----5----5----------|
--0-------0---0-----------|------------0--0--0--|------------0--0--0--|
--------------------------|--5----5-------------|--5----5-------------|

  S S S S S S S S S S S S    S S S S S S S S S S S S
--3-------5---2---0-------|--0-----------------------|
------0---------------3---|----------0---0-------0---|
----0---0---0---2---2---2-|------0-----------0-2-----|
------0---------------0---|----2---2---2---2-------2-|
------------------0-------|--3-----------3-----------|
--5-----------0-----------|--------------------------|

  S S S S S S S S S S S S    S S S S S S S S S S S S    S S S S S S S S S S E
--------------------------|--0-----------------------|----------------------0--|
--0-------0---0---1---3---|----------2---2-----0-2---|--2---0---2---2---3------|
------2-------------------|------2-----------2-------|----------------2---2----|
----2---2---2---2---2---2-|----2---2---2---2-------2-|----2---2---2------------|
--3-----------3-----------|--0-----------0-----------|--0-----------0----------|
--------------------------|--------------------------|-------------------------|

  Q    E  E  Q       E  E  E  Q    E     E  Q    E  E  E
--5----5-----5----|-----5--3--2----0--|-------------0--2--|
------------------|-------------------|-----3----3--------|
------------------|-----------0-------|--1-------1--------|
--4-------4-------|--5----------------|-------------------|
------------------|-------------------|-------------------|
------------------|-------------------|-------------------|

  S S S S S S S S S S S S    Q    E  E  E  E     E  E  E  Q    E
----0---------------------|--5----5-----5-----|-----5--3--2----0--|
------3-2-0---------------|--3----3-----3-----|-----0-----3-------|
--2---------2-0-----------|-------------------|-------------------|
----------------4-2-0-----|-------------------|-------------------|
----------------------4-0-|-------------------|-------------------|
--------------------------|--4-------4-----4--|--5--------5-------|

                                                       |-3-|
  Q    E  E  E  E     Q    E  Q.         E   S S E  E  S S S  E
----------0-----2--|-------0--5------|--10-------7--8--7-8-7-----|
--0----------------|--2--------------|------10---------------10--|
--7----7-----------|--2--------------|---------------------------|
----------6--------|-----------------|-----------0-----0---------|
-------------------|--0--------------|---------0--------------0--|
--6----------2-----|-----------------|---0----------0------------|

                                      |-3-|
  E.  S E  E  E  E      E   S S E  E  S S S  E      E   S S  E   E  E  E
--3-----5--2--------|--10-------7--8--7-8-7-----|--15--14---12--14--------|
--------------------|------10---------------10--|-------------------------|
--------------------|---------------------------|-------------------------|
--------0-----0-----|-----------0-----0---------|------------0------0-----|
------0----------0--|---------0--------------0--|---------0------------0--|
--0--------0--------|---0----------0------------|---0------------0--------|

                 |-3-|
   E   S S E  E  S S S  E     E.  S E  E  E  E     S S S S S S S S S S S S
--10-------7--8--7-8-7-----|--3-----5--2--------|--0---2---3---3---5---7---|
------10---------------10--|-----------------3--|--------------------------|
---------------------------|--------------------|----0---0---0---0---0---0-|
-----------0-----0---------|--------0-----0-----|--------------------------|
---------0--------------0--|------0----------0--|--3-----------2-----------|
---0----------0------------|--0--------0--------|--------------------------|

                              NH
  S S S S S S E  E  E         H.
--3-2-0-----------------||-----------------||
--------3-2-0-----------||--<>7------------||
--------------2--------*||--<>7------------||
-----------------------*||--<>7------------||
--0-----------0--0--0---||-----------------||
------------------------||----0------------||

Duration Legend
---------------
W - whole
H - half
Q - quarter
E - 8th
S - 16th
T - 32nd
X - 64th
. - note dotted
|-n-|  - n-tuplets

        
Comments

@Seth (April 15, 2007 at 6:31 PM)

Very nice. I got this arrangement off your old website (too bad it went down :().

Here's a link to me playing it (with some small changes, and a lot slower): http://www.youtube.com/watch?v=PC0h9DIfgoU


@archard (April 15, 2007 at 7:45 PM)

Do you mind if I put that YouTube video up in the Recordings section? It's very well done.


@Seth (April 16, 2007 at 9:17 AM)

Not at all. Nice site, btw.


@Kabukibear (April 18, 2007 at 8:16 PM)

Awesome! It makes me so happy to see people playing my stuff. :D You did a great job by the way. Thanks for this!


@superoughboy4 (April 29, 2007 at 6:16 AM)

I can hardly play this... But I can tell this was tabbed very well. I just hope I can practice enough to play this at a decent pace. Lol


@I WILL Play it :D (May 02, 2007 at 10:12 PM)

Man it's difficult ^.^"


@DuoDn (May 16, 2007 at 1:51 PM)

the only really difficult part is memorizing it....as it is with most pieces. I almost never have the patience to memorize something. After i play through it i feel content that i did it and move on >.


@Peter (May 31, 2007 at 2:50 PM)

Thank's very much for the TABs! I'm a beginner guitarist and it's fun to learn my favourite songs, even if I'm struggling very hard to keep up the tempo. ;) It seems everything you have to do is memorize the finger positions and develop quick and strong finger muscles so you can physically manage the song. But I think to really play the song beautifully and touching there has to some kind of passion and feeling while playing which one cannot learn from teachings.


@archard (May 31, 2007 at 6:21 PM)

Absolutely right Peter. I think one of the most important parts of being a good guitarist is physically strengthening those finger muscles, so you can switch to and hold barre chords on demand. And there does indeed have to be a passion in the person playing.


@Kabukibear (June 10, 2007 at 6:59 PM)

YIKES, I didn't even notice that gp had tabbed my things strangely in the 5th measure. I'll send archard a fix for this.