Gametabs
Home
Tabs
Random

Memories of Green

Average rating: 5.000

8 ratings

Composer:

Tabber:

Style:

Instrument:

Created: November 06, 2012 at 12:00 AM

            Title: Memories of Green
SubTitle: Chrono Trigger
Artist: Yasanori Mitsuda
Music: Tabbed by Mitch Jackson
Tempo = 150
TS = 4/4


  ♪♫•*¨*•.¸¸ CAPO 6 ¸¸.•*¨*•♫♪


Left hand fingering is included in GP file as a guide
Tuning: Tune G string down 2 semi-tones
        Tune low E string down 2 semi-tones

---------
LEGEND 
---------
h = Hammer-On
p = Pull-off
v = Downward Arpeggio
|-3-| = Triplet
rall = Rallentando (Gradually Slow Down Speed)
mf = mezzo-forte (Moderately Loud)


 
  mf
     E  E  E  E  E  E  E  E       E  E  E  E  E  E  E  E       E  E  E  E  E  E  E  E       E  E  E  E  E  E  E  E    
E |----------------------------|----------------------------|----------------------------|----------------------------|
B |--1--------1-----------1----|-----------1-----------1----|--1--------1-----------1----|-----------1-----------1----|
F |--------0-----------0-------|--------0-----------0-------|--------0-----------0-------|--------0-----------4-------|
D |-----2-----------2----------|--0--2-----------2----------|-----2-----------2----------|--0--2-----------2----------|
A |--------------0-------------|--------------0-------------|--------------0-------------|--------------0-------------|
D |--0-------------------------|----------------------------|--0-------------------------|----------------------------|

                                                           
     E  E  E  E  E  E  E  E       E  E  E  E  E  E  E  E       E  E  E  E  E  E  E  E       E  E  E  E  E  E  E  E    
 ||-----------0--------1-------|--------------0-------------|----------------------------|-----------------------3----|
 ||--3--------1-----------1----|-----------1--------1-------|-----------1-----------1----|-----------1--------3-------|
 ||o-------0-----------0-------|--------4-----------0-------|--------0-----------0-------|--------2--------4----------|
 ||o----2-----------2----------|--0--2-----------2-----2----|-----2-----------2----------|--0--2----------------------|
 ||--------------0-------------|--------------0-------------|--------------0-------------|--------------0-------------|
 ||--0-------------------------|----------------------------|--0-------------------------|----------------------------|

                                                                                            1st Ending 
     E  E  E  E  E  E  E  E       E  E  E  E  E  E  E  E       E  E  E  E  E  E  E  E       E  E  E  E  E  E  E  E    
  |--5--------5--------3--2----|----------------------------|----------------------------|---------------------------||
  |----------------------------|--3--------3-----------3----|-----------3-----------3----|-----------3---------------||
  |--------2-----------2-------|--------2-----------2-------|--------2-----------2-------|--------2-----------4-----o||
  |-----4-----------4----------|--2--4-----------4----------|-----4-----------4----------|--2--4-----------4-----4--o||
  |--------------2-------------|--------------2-------------|--------------2-------------|--------------2------------||
  |--2-------------------------|----------------------------|--2-------------------------|---------------------------||

     2nd Ending 
     E  E  E  E  E  E  E  E       E  E  E  E  E  E  E  E       E  E  E  E  E  E  E  E       E  E  E  E  E  E  E  E    
  |----------------------------|--1-------------------------|--3-------------------------|--5-------------------------|
  |-----------3--------3--5----|-----------3-----------3----|-----------3-----------3----|-----------3-----------3----|
  |--------2-------------------|--------2-----------2-------|--------2-----------2-------|--------2-----------2-------|
  |--2--4-----------4----------|-----3-----------3----------|-----3-----------3----------|-----3-----------3----------|
  |--------------2-------------|--------------1-------------|--------------1-------------|--------------1-------------|
  |----------------------------|--1-------------------------|--1-------------------------|--1-------------------------|

                                                          
     E  E  E  E  E  E  E  E       E  E  E  E  E  E  E  E       E  E  E  E  E  E  E  E       E  E  E  E  E  E  E  E    
  |--6-------------------------|--8-----------------7--6----|--5-------------------------|----------------------------|
  |-----------3-----------3----|----------------------------|-----------1-----------1----|-----------1-----------1----|
  |--------2-----------2-------|--------0--7----------------|--------0-----------0-------|--------0-----------0-------|
  |-----3-----------3----------|-----------------2----------|-----2-----------2----------|-----2-----------2----------|
  |--------------1-------------|-----7--------0-------------|--------------0-------------|--------------0-------------|
  |--1-------------------------|--0-------------------------|--0-------------------------|--0-------------------------|

                                                                                            |-3-|
     E  E  E  E  E  E  E  E       E  E  E  E  E  E  E  E       E  E  E  E  E  E  E  E       E E E  E  E  E  E  E  E   
  |--------------5-----3-------|--5-------------------------|--------------------3-------|------------------------0---|
  |-----------1-----------1----|-----------3-----------3----|--6--------6-----------6----|--5p3h5-----1--------1------|
  |--------0-----------0-------|--------4-----------4-------|-----4--5--------4--5-------|---------2--------2---------|
  |-----2-----------2----------|-----5--------3--5----------|--------------3-------------|---------------0------------|  
  |--------------0-------------|----------------------------|----------------------------|----------------------------|
  |--0-------------------------|--3-------------------------|--3-------------------------|--0-------------------------|

                             
     E  E  E  E  E  E  E  E       E  E  E  E  E  E  E  E       E  E  E  E  E  E  E  E        E  E  E  E  E  E  E  E     
  |-----------0-----------0----|-----------0-----------0----|-----------0-----------1----||-----------0--------1-------|
  |--------1-----------1-------|--------1-----------1-------|--------1-------------------||--3--------1-----------1----|
  |-----2-----------2----------|-----2-----------2----------|-----2-----------2--4-------||o-------0-----------0-------|
  |--------------0-------------|--------------0-------------|----------------------------||o----2-----------2----------|
  |----------------------------|----------------------------|--------------0-------------||--------------0-------------|
  |--0-------------------------|--0-------------------------|--0-------------------------||--0-------------------------|


     E  E  E  E  E  E  E  E      E  E  E  E  E  E  E  E       E  E  E  E  E  E  E  E       E  E  E  E  E  E  E  E    
  |--------------0------------|----------------------------|-----------------------3----|--5--------5--------3--2----|
  |-----------1--------1------|-----------1-----------1----|-----------1--------3-------|----------------------------|
  |--------4-----------0------|--------0-----------0-------|--------2--------4----------|--------2-----------2-------|
  |--0--2-----------2-----2---|-----2-----------2----------|--0--2----------------------|-----4-----------4----------|
  |--------------0------------|--------------0-------------|--------------0-------------|--------------2-------------|
  |---------------------------|--0-------------------------|----------------------------|--2-------------------------|

                                                               1st Ending                   2nd Ending 
     E  E  E  E  E  E  E  E       E  E  E  E  E  E  E  E       E  E  E  E  E  E  E  E       E  E  E  E  E  E  E  E    
  |----------------------------|----------------------------|---------------------------||----------------------------|
  |--3--------3-----------3----|-----------3-----------3----|-----------3---------------||-----------3--3-----5-------|
  |--------2-----------2-------|--------2-----------2-------|--------2-----------4-----o||--------2--------------2----|
  |--2--4-----------4----------|-----4-----------4----------|--2--4-----------4-----4--o||--2--4-----------4----------|
  |--------------2-------------|--------------2-------------|--------------2------------||--------------2-------------|
  |----------------------------|--2-------------------------|---------------------------||----------------------------|

                                                          
     E  E  E  E  E  E  E  E       E  E  E  E  E  E  E  E       E  E  E  E  E  E  E  E       E  E  E  E  E  E  E  E     
  |--1-------------------------|--3-------------------------|--5-------------------------|--6-------------------------|
  |-----------3-----------3----|-----------3-----------3----|-----------3-----------3----|-----------3-----------3----|
  |--------2-----------2-------|--------2-----------2-------|--------2-----------2-------|--------2-----------2-------|
  |-----3-----------3----------|-----3-----------3----------|-----3-----------3----------|-----3-----------3----------|
  |--------------1-------------|--------------1-------------|--------------1-------------|--------------1-------------|
  |--1-------------------------|--1-------------------------|--1-------------------------|--1-------------------------|

                                                          
     E  E  E  E  E  E  E  E       E  E  E  E  E  E  E  E       E  E  E  E  E  E  E  E       E  E  E  E  E  E  E  E    
  |--8-----------------7--6----|--5-------------------------|----------------------------|--------------5-----3-------|
  |----------------------------|-----------1-----------1----|-----------1-----------1----|-----------1-----------1----|
  |--------0--7----------------|--------0-----------0-------|--------0-----------0-------|--------0-----------0-------|
  |-----------------2----------|-----2-----------2----------|-----2-----------2----------|-----2-----------2----------|
  |-----7--------0-------------|--------------0-------------|--------------0-------------|--------------0-------------|
  |--0-------------------------|--0-------------------------|--0-------------------------|--0-------------------------|

                                                               |-3-|
     E  E  E  E  E  E  E  E       E  E  E  E  E  E  E  E       E E E  E  E  E  E  E  E      E  E  E  E  E  E  E  E     
  |--5-------------------------|--------------------3-------|------------------------0---|-----------0-----------0----|
  |-----------3-----------3----|--6--------6-----------6----|--5p3h5-----1--------1------|--------1-----------1-------|
  |--------4-----------4-------|-----4--5--------4--5-------|---------2--------2---------|-----2-----------2----------|
  |-----5--------3--5----------|--------------3-------------|---------------0------------|--------------0-------------|
  |----------------------------|----------------------------|----------------------------|----------------------------|
  |--3-------------------------|--3-------------------------|--0-------------------------|--0-------------------------|


    E  E  E  E  E  E  E  E       E  E  E  E  E  E  E  E        E  E  E  E  E  E  E  E       E  E  E  E  E  E  E  E    
 |-----------0-----------0----|-----------0-----------1----||-----------0--------1-------|--------------0-------------|
 |--------1-----------1-------|--------1-------------------||--3--------1-----------1----|-----------1--------1-------|
 |-----2-----------2----------|-----2-----------2--4-------||o-------0-----------0-------|--------4-----------0-------|
 |--------------0-------------|----------------------------||o----2-----------2----------|--0--2-----------2-----2----|
 |----------------------------|--------------0-------------||--------------0-------------|--------------0-------------|
 |--0-------------------------|--0-------------------------||--0-------------------------|----------------------------|

                                                                                           
     E  E  E  E  E  E  E  E       E  E  E  E  E  E  E  E       E  E  E  E  E  E  E  E       E  E  E  E  E  E  E  E      
  |----------------------------|-----------------------3----|--5--------5--------3--2----|----------------------------|
  |-----------1-----------1----|-----------1--------3-------|----------------------------|--3--------3-----------3----|
  |--------0-----------0-------|--------2--------4----------|--------2-----------2-------|--------2-----------2-------|
  |-----2-----------2----------|--0--2----------------------|-----4-----------4----------|--2--4-----------4----------|
  |--------------0-------------|--------------0-------------|--------------2-------------|--------------2-------------|
  |--0-------------------------|----------------------------|--2-------------------------|----------------------------|

                                  1st Ending                   2nd Ending 
     E  E  E  E  E  E  E  E       E  E  E  E  E  E  E  E        E  E  E  E  E  E  E  E       E  E  E  E  E  E  E  E     
  |----------------------------|----------------------------||----------------------------|--1-------------------------|
  |-----------3-----------3----|-----------3----------------||-----------3--------3--5----|-----------3-----------3----|
  |--------2-----------2-------|--------2-----------4------o||--------2-------------------|--------2-----------2-------|
  |-----4-----------4----------|--2--4-----------4-----4---o||--2--4-----------4----------|-----3-----------3----------|
  |--------------2-------------|--------------2-------------||--------------2-------------|--------------1-------------|
  |--2-------------------------|----------------------------||----------------------------|--1-------------------------|


     E  E  E  E  E  E  E  E       E  E  E  E  E  E  E  E       E  E  E  E  E  E  E  E       E  E  E  E  E  E  E  E     
  |--3-------------------------|--5-------------------------|--6-------------------------|--8-----------------7--6----|
  |-----------3-----------3----|-----------3-----------3----|-----------3-----------3----|----------------------------|
  |--------2-----------2-------|--------2-----------2-------|--------2-----------2-------|--------0--7----------------|
  |-----3-----------3----------|-----3-----------3----------|-----3-----------3----------|-----------------2----------|
  |--------------1-------------|--------------1-------------|--------------1-------------|-----7--------0-------------|
  |--1-------------------------|--1-------------------------|--1-------------------------|--0-------------------------|

                                                               rall                         v                        
     E  E  E  E  E  E  E  E       E  E  E  E  E  E  E  E       E  E  E  E  E  E  E  E       W                            
  |--5-------------------------|----------------------------|----------------------------|--5-------------------------||
  |-----------1-----------1----|-----------1-----------1----|-----------1-----------1----|--3-------------------------||
  |--------0-----------0-------|--------0-----------0-------|--------0-----------0-------|--4-------------------------||
  |-----2-----------2----------|-----2-----------2----------|-----2-----------2----------|--2-------------------------||
  |--------------0-------------|--------------0-------------|--------------0-------------|--0-------------------------||
  |--0-------------------------|--0-------------------------|--0-------------------------|--0-------------------------||


Note Durations:
---------------
W = Whole Note / Semibreve - 4 Beats
E = Eighth Note / Quaver - 1/2 Beat


        
Comments

@diralark (November 06, 2012 at 8:35 PM)

Thanx for the transcription, it sounds so close to the Ost ^^ Original arrangement is from : http://www.youtube.com/watch?v=TMuGgVDIvUQ I like his chest (wanna loot that :)


@thedstring (December 09, 2012 at 11:22 PM)

Amazing tab! I love this tuning too


@thedstring (March 17, 2013 at 12:18 AM)

I've been playing this part:

E  E  E  E  E  E  E  E       E  E  E  E  E  E  E  E       E  E  E  E  E  E  E  E
|--1-------------------------|--3-------------------------|--5-------------------------|
|-----------3-----------3----|-----------3-----------3----|-----------3-----------3----|
|--------2-----------2-------|--------2-----------2-------|--------2-----------2-------|
|-----3-----------3----------|-----3-----------3----------|-----3-----------3----------|
|--------------1-------------|--------------1-------------|--------------1-------------|
|--1-------------------------|--1-------------------------|--1-------------------------|

E  E  E  E  E  E  E  E
|--6-------------------------|
|-----------3-----------3----|
|--------2-----------2-------|
|-----3-----------3----------|
|--------------1-------------|
|--1-------------------------|

like this:

E  E  E  E  E  E  E  E       E  E  E  E  E  E  E  E       E  E  E  E  E  E  E  E
|--1-------------------------|--3-------------------------|--5-------------------------|
|-----------3-----------3----|-----------<font color="red">1</font>-----------<font color="red">1</font>----|-----------<font color="red">1</font>-----------<font color="red">1</font>----|
|--------2-----------2-------|--------2-----------2-------|--------2-----------2-------|
|-----3-----------3----------|-----3-----------3----------|-----3-----------3----------|
|--------------1-------------|--------------1-------------|--------------1-------------|
|--1-------------------------|--1-------------------------|--1-------------------------|

E  E  E  E  E  E  E  E
|--6-------------------------|
|-----------<font color="red">1</font>-----------<font color="red">1</font>----|
|--------2-----------2-------|
|-----3-----------3----------|
|--------------1-------------|
|--1-------------------------|

so I can hold out the high note for the entire measure. The chord still sounds very legit as 1's instead of 3's (I have big hands, I'm 6'3")


@karathrow (March 19, 2013 at 5:45 AM)

I love the way this arrangement just...kinda rolls along. I'm bad at explaining things D:. Anyways I think this sounds really really pretty. I never thought much of this song in the game but it sounds amazing when I play it on my guitar.

That being said I really do not like how the notes get cut short in the part thedstring was describing, but I dont really like changing the notes to fix it either.


@musenji (October 17, 2014 at 2:02 PM)

I think this goes better as a duet with the melody an octave up. The melody travels right smack dab in the middle of the texture--makes it kinda impossible to really bring it out well.

And the part dstring was talking about...doesn't even physically work for me. Even on capo 3, there's no way I'm getting 1x32x6 to happen. Even hurts to do on capo 5.