Gametabs
Home
Tabs
Random

Marle's Theme (Intermediate)

Average rating: 5.000

2 ratings

Composer:

Tabber:

Style:

Instrument:

Created: February 27, 2019 at 12:00 AM

            Transcribed by ear only. Took lot's of time. Close enough.. enjoy!


 1/4  3/4
  Q    Q  Q  Q    Q  Q  Q    Q  Q  Q    Q  Q  Q    Q  Q  E E   Q  Q  E E   Q  Q  Q    Q  Q  Q
|----|-0-----0--|-2-----7--|-4-----4--|-5--4--2--|-0-------0-|-2-------0-|-0--------|----------|
|-0--|----0-----|----0--7--|-5--5-----|-------4--|-2--2------|----1--0---|-0--0-----|-4--------|
|----|-1--------|-2--------|-4--------|----------|-1-----1---|-2-----2---|-1-----1--|-4--4--6--|
|----|-2--------|-1--------|----------|----------|-----------|-----------|----------|-5--------|
|----|----------|----------|----------|----------|-----------|-----------|----------|-------0--|
|----|----------|----------|----------|----------|-----------|-----------|----------|----------|


  Q.   E Q    Q  Q  Q    Q  E E Q    Q  Q  Q    H    Q    Q  Q    Q     Q  Q  Q    Q  Q  Q
|------7-7--|-7--5--4--|-5----5-5--|-5--4--2--|-4----4--|-2-----------|----------|-------4--|
|--------7--|-6--7--6--|-5------5--|-4--4--2--|-4----4--|-2--0--<12>--|-5-----5--|-4-----4--|
|-4---------|-6--------|-----------|-4--------|---------|-------------|-6-----6--|-4-----4--|
|-6------6--|----------|-4--4---4--|----------|-2-------|-1-----------|----6-----|----4--2--|
|-----------|----------|-----------|----------|---------|-------------|-4--------|-2--------|
|-4---------|----------|-----------|----------|---------|-------------|----------|----------|


  Q  Q  Q    Q  Q  E E   Q  Q  Q    Q  Q  Q    Q  Q  Q    Q  Q  Q    H.
|----------|-------0-7-|-7--5-----|-------2--|-0--------|----------|-2-----*|
|-2-----2--|-----------|-------9--|-5p=4--4--|-0-----0--|-1-----1--|-2-----*|
|-2-----2--|-1---------|----------|-4--------|----1-----|-2-----2--|-1-----*|
|----2-----|-2---------|-7--------|-4--------|-2--------|----1-----|-2-----*|
|-0--------|----2------|----------|----------|----------|-0--------|-------*|
|----------|-0---------|----------|----------|----------|----------|-------*|

< n > - natural harmonic
p - pull off


        
Comments

@GabrielBocanegra (February 05, 2021 at 10:52 PM)

A very non-traditional arrangement. Most of the other tabbers went with a super happy vibe style in the key of Cmajor, not using much sharps or flats, but this version uses quite a few sharps and flats and so it makes it very interesting to play. Being in the key of E major it almost has a "waltz for zizi" vibe goin on.

Keep up the good work!


@WhyCan'tILogIn (April 17, 2021 at 2:10 AM)

Very awesome :)))