Gametabs
Home
Tabs
Random

Manoria Cathedral

Average rating: 4.636

11 ratings

Composer:

Tabber:

Style:

Instrument:

Created: May 31, 2008 at 12:00 AM

            Chrono Trigger - "Catherderal"
composed by Yasunori Mitsuda/Nobuo Uematsu
tabbed by Resiphiodate

    
    Q    Q    Q      Q    Q    Q      Q    Q    Q      Q    Q    Q     
E||------0---------|------0---------|------0----2----|-3----2----0----|
B||-0--------------|-0--------------|-0--------------|-0--------------|
G||-0---------2----|-2---------2----|-0--------------|-----------0----|
D||-2--------------|-4--------------|----------------|----------------|
A||----------------|----------------|----------------|-3--------------|
E||----------------|----------------|----------------|----------------|

  Q    Q    Q      Q    Q    Q      Q    Q    Q      Q    Q    Q     
|------0---------|------0---------|----------------|----------------|
|-3---------0----|-3---------0----|----------------|----------------|
|-2--------------|-2--------------|-2----0----2----|---------------*|
|----------------|-3--------------|----------------|-4----2----1----|
|-2--------------|----------------|-3--------------|-2-------------*|
|----------------|----------------|----------------|----------------|

        
Comments

@Krimson (June 01, 2008 at 11:15 PM)

Nice :)


@Madhobbit (June 02, 2008 at 8:22 PM)

sweet!


@michi2002k2 (June 02, 2008 at 10:07 PM)

Its good, but not that great guitar song imo :)


@Shade (June 03, 2008 at 8:50 PM)

I disagree with that guy again ^, I think anything can be adapted to any instrument if the arrangement is good enough and the musician is good enough. I like this, I always kinda liked that tune.


@musenji (October 17, 2014 at 12:06 PM)

Very nice!

I do wonder about the chord at the beginning of measure 4 tho.


@xxtazy (November 26, 2014 at 10:07 PM)


@Weboshi (May 02, 2023 at 8:00 PM)

Thanks for the tab, I'm really enjoying playing it