Gametabs
Home
Tabs
Random

Magus Battle Theme

Average rating: 4.000

3 ratings

Composer:

Tabber:

Style:

Instrument:

Created: March 02, 2011 at 12:00 AM

            Decisive Battle with Magus
Chrono Trigger
Composer: Yasunori Mitsuda
Tabbed by: Bacardibreezer, with some help from Archard
2/27/11


e|-----------------------|
B|-----------------------|
G|-----------------------|
D|--2-----3-----2-----5--|
A|-----------------------|
E|--0-----1-----0-----3--|

e|--------------------------------------------------------|
B|-------------------------------15-----------------------|
G|--9--7-------------------------------17---16h17p16---s1-|
D|--------10--9-------------------------------------------|
A|---------------12--10--8--------------------------------|
E|--------------------------------------------------------|

e|-------------------------------------------------------------------------------------|
B|--17-15-------------------------------------17-15------------------------15p14p13p12-|
G|--------17-16---14--------------------------------17-16---14----------17-------------|
D|-------------------17-15-14--15--14--17----------------------17-15-14----------------|
A|-------------------------------------------------------------------------------------|
E|-------------------------------------------------------------------------------------|

e|-------------------------------------------------------------------------------------|
B|--17-15-------------------------------------17-15------------------------15-17-------|
G|--------17-16---14--------------------------------17-16---14----------17-------------|
D|-------------------17-15-14--15--14--17----------------------17-15-14----------------|
A|-------------------------------------------------------------------------------------|
E|-------------------------------------------------------------------------------------|

	This is the trumpets, if you are using two guitars:

	e|-------------------------------------------|------------------------------------------|
	B|-------------------------------------------|------------------------------------------|
	G|-------------------------------------------|------------------------------------------|
	D|-------------------------------------------|------------------------------------------|
	A|--7-7-7-7---5-5-5----7-7-7-7-----12-12-12--|--7-7-7-7---5-5-5----7-7-7-7---10-10-10---|
	E|--7-7-7-7---5-5-5----7-7-7-7-----11-11-11--|--7-7-7-7---5-5-5----7-7-7-7---10-10-10---| x4



e|--12----15-12------------------------------------------12----15-12-------------12-15-17-17-16---|
B|-----15-------13-12-13-12------------8-----h8-10----------15-------13-12-13-15------------------|
G|--------------------------12-9---7h9-----9------------------------------------------------------|
D|------------------------------------------------------------------------------------------------|
A|------------------------------------------------------------------------------------------------|
E|------------------------------------------------------------------------------------------------|

e|-------------------------------------------|
B|-------------------------------------------|
G|-------------------------------------------|
D|-----------------------------------2h1-----|
A|--3-3---3-3-3--3h5-----3-3---3-3-3-3h2-----|
E|--5-5---5-5-5--5h7-----5-5---5-5-5---------| x2

e|-----------------------------|
B|--------------12-13-12-------|
G|--------12-14----------------|
D|--14-15----------------------|
A|-----------------------------|
E|-----------------------------|




        
Comments

No comments yet