Gametabs
Home
Tabs
Random

Lucca's Theme

Average rating: 4.750

12 ratings

Composer:

Tabber:

Style:

Instrument:

Created: May 12, 2011 at 12:00 AM

            Lucca's Theme - Chrono Trigger
Arranged by: Max_depa
Composed by: Yasunori Mitsuda


     Q    E  E  E  E  Q    E  E  E  E     Q     E   H.            E   E   E   
E||--2----2--2--0--2--3----3--3--2--3--|--5----10--10-------------8---8---8--|
B||--3----------------5----------------|-------------------------------------|
G||--2----------------5----------------|-------10--10-------------9---9---9--|
D||------------------------------------|-------------------------10--10--10--|
A||------------------------------------|-------------------------------------|
E||------------------------------------|-------------------------------------|


   H.           Q.     Q.          Q.     E  E  E  Q.     Q    E   
--10--------------------------||----------------------------------|
----------------3------3------||---3---------------3------2----2--|
--11--------------------------||*------------0--2-----------------|
--12--------------------------||*---------0-----------------------|
------------------------------||-------------------0------0-------|
------------------------------||---3------3-----------------------|


  Q    E  Q.     Q.     Q.        Q.     E  E  E  Q.     Q    E   
-------------------------------|---------------------------------|
--2----3-----------------------|--3---------------3------2----3--|
----------2--------------------|------------0--2-----------------|
--0-------0------0------0------|---------0-----------------------|
-------------------------------|------------------0------0-------|
-------------------------------|--3------3-----------------------|


  Q    E  Q.     Q    E  E  E  E     Q.     E  E  E  Q.     Q    E   
--0----2--2-----------2--3--2--0--|---------------------------------|
----------------------------------|--3---------------3------2----2--|
----------------------------------|------------0--2-----------------|
--0-------0------0-------0--------|---------0-----------------------|
----------------------------------|------------------0------0-------|
----------------------------------|--3------3-----------------------|


  Q    E  Q.     Q.     Q.        E  E  E  E  E  E  E  E  E  E  E  E   
-------------------------------|--------------------------------------|
--2----3-----------------------|-----------------------------------1--|
----------2-------------0------|-----------------0-----0--2--0--2-----|
--0-------0------0------0------|--0--2--3--2--3-----3-----------------|
-------------------------------|--1--------1--------3--------3--------|
-------------------------------|--------------------------------------|


  Q.     Q.     Q.     Q.          W                H          
-------------------------------||--2-------------------------||
--3----------------------------||--3-------------------------||
------------------------------*||--2-------------------------||
--0------0------0------0------*||--0-------------------------||
-------------------------------||----------------------------||
-------------------------------||----------------------------||




Duration Legend
---------------
W - whole
H - half
Q - quarter
E - 8th
S - 16th
T - 32nd
X - 64th
. - note dotted
|-n-|  - n-tuplets


Tablature Legend
----------------
L - tied note
x - dead note
g - grace note
(n) - ghost note
> - accentuded note
NH - natural harmonic
AH - artificial harmonic
TH - tapped harmonic
SH - semi harmonic
PH - pitch harmonic
h - hammer on
p - pull off
b - bend
br - bendRelease
pb - preBend
pbr - preBendRelease
brb - bendReleaseBend
\n/ - tremolo bar dip
\n - tremolo bar dive
-/n - tremolo bar Release up
/n\ - tremolo bar inverted dip
/n - tremolo bar return
-\n - tremolo bar Release down
S - shift slide
s - legato slide
/ -  slide into from below or out of upwards
\ -  slide into from above or out of downwards
~ - vibrato
W - wide vibrato
tr - trill
TP - tremolo picking
T - tapping
S - slap
P - pop
< - fade in
^ - brush up
v - brush down
        
Comments

@thiagobpaiva (May 14, 2011 at 3:27 PM)

Good job Max! A recording perhaps? xD


@Ranulf (May 15, 2011 at 10:57 PM)

Nice arrange and recording


@huichek1511 (October 02, 2011 at 10:28 AM)

Great tab dude!! absolutely awesome!! :D


@karathrow (April 17, 2012 at 5:13 AM)

Thanks Max, I really love your tabs.