Gametabs
Home
Tabs
Random

Kingdom Trial

Average rating: 5.000

1 ratings

Composer:

Tabber:

Style:

Instrument:

Created: April 23, 2009 at 12:00 AM

            THE TRIAL (lead)
Chrono Trigger

Song by Yasunori Mitsuda
Lead transcribed for Bass by Randall Stephens (randalllscottt at gmail dot com)
from Frank Marchunt's original Guitar transcription

NOTE: The first section is in the original octave 
(to keep it simple on a 4 string - no E|--8-7-8-10-3-8--|) 
and very little is changed there from Frank's original.
All other sections are down one octave with a couple of shape changes,
so for guitar just run it back up an octave and find a comfortable fingering.

Standard tuning (E A D G)


G||-12-11-12-13---12-11-12------10--------|------------------------------------|
D||------------------------12--------13---|-10--9-10-12------------------------|
A||---------------------------------------|---------------10---11---10h11p10---|
E||---------------------------------------|------------------------------------|

G|--12-11-12-13---12-11-12------10--------|-----------------------------------||
D|-------------------------12--------13---|-10--9-10-12--------10-------------||
A|----------------------------------------|---------------10------------------||
E|----------------------------------------|-----------------------------------||
  [repeat 1x]


    E  E  E  E  Q    E  E  E  E  Q    E  E  E  E  Q    E  E  E  E  Q 
G|----------------|----------------|-10-------------|----------------|
D|-10--9-10-12----|-12-10-12-13----|----13-12-13-10-|-13-12-10-12----|
A|-------------10-|-------------11-|----------------|-------------10-|
E|----------------|----------------|----------------|----------------|
    E  E  E  E  Q    E  E  E  E  Q    E  E  E  E  Q    E  E  E  E  E  Q  Q  Q  Q
G|----------------|----------------|-10-------------|----------------------------||
D|-10--9-10-12----|-12-10-12-13----|----13-12-13-10-|-13-12-10-12----10-----8----||
A|-------------10-|-------------11-|----------------|-------------10-------------||
E|----------------|----------------|----------------|----------------------------||


    E  E  E  E  E  E    E  E  E  E  E  E   
G|-------------------|-------------------|
D|-10--9-10--7--9----|-10--9-10--7--9----|
A|-----------------7-|-----------------7-|
E|-------------------|-------------------|
    E  E  E  E  E  E    E  E  E  E  E  E  
G|-10--9-10--7--9----|-10--9-10--7--9----|
D|-----------------7-|-----------------7-|
A|-------------------|-------------------|
E|-------------------|-------------------|
    E  E  E  E  E  E    E  E  E  E  E  E   
G|-------------------|-------------------|
D|-10--9-10--7--9----|-10--9-10--7--9----|
A|-----------------7-|-----------------7-|
E|-------------------|-------------------|

    E  E  E  E  E  E    E  E  E  E  E  E 
G|--7--5--7--3--5----|--7--5--7--9--7--9-|
D|-----------------3-|-------------------|
A|-------------------|-------------------|
E|-------------------|-------------------|
 
    E  E  E  E  E  E    E  E  E  E  E  E  
G|-10--9-10--7--9----|-10--9-10-12-10-12-|
D|-----------------7-|-------------------|
A|-------------------|-------------------|
E|-------------------|-------------------|

    E  E  E  E  E  E    E  E  E  E  E  E  
G|-13-12-13-10-12----|-13-12-13-15-13-15-|
D|----------------10-|-------------------|
A|-------------------|-------------------|
E|-------------------|-------------------|

    E  E  E  E  E  E    E  E  E  E  E  E  
G|-16-15-16-13-15----|-16-15-16-18-16-18-|
D|----------------13-|-------------------|
A|-------------------|-------------------|
E|-------------------|-------------------|


    Q  Q  Q  E  Q  Q  Q    Q  Q  Q  E  Q  Q  Q
G|-19-19----19-18-18----|-19-19----19-18-18----|
D|----------------------|----------------------|
A|----------------------|----------------------|
E|----------------------|----------------------|
    Q  Q  Q  E  Q  Q  Q    Q  Q  Q  E  Q  Q  Q
G|-17-17----17-16-16----|-17-17----17-16-16----|
D|----------------------|----------------------|
A|----------------------|----------------------|
E|----------------------|----------------------|

    H    H    Q  Q
G|-15---14-------------||
D|-----------15-17-----||
A|---------------------||
E|---------------------||

        
Comments

@PhonixDown26 (September 16, 2012 at 1:58 PM)

Sounds pretty accurate to me. Very... eerie.