Gametabs
Home
Tabs
Random

Corridors of Time

Average rating: 5.000

9 ratings

Composer:

Tabber:

Style:

Instrument:

Created: April 08, 2014 at 12:00 AM

            Corridors of Time
Chrono Trigger

Composed by Yasunori Mitsuda
Arranged by Nate Brooks (thedstring)

Capo fret 1
Drop D tuning

///////////////////////////////////////////////

// Note!

/*
This is a combination of the 2 guitar version.  Check it out!

Hint for the fingering:
 Rock your index finger back and forth to play the 2's at the start,
 switching between barring both 2's and holding only 1 of them.
*/



    1                                                     
E |--------------2-------------|--0-----------2-------------|
B |-----------2-----------2----|-----------2-----------2----|
G |--------4-----------4-------|--------4-----------4-------|
D |-----4-----------4----------|-----4-----------4----------|
A |--5-------------------------|----------------------------|
D |----------------------------|----------------------------|

 3                          
--------------2-------------|--0-----------2-------------|
-----------2-----------2----|-----------2-----------2----|
--------4-----------4-------|--------4-----------4-------|
-----4-----------4----------|-----4-----------4----------|
--5-------------------------|----------------------------|
----------------------------|----------------------------|

 5
----------------------------|----------------------------|
----------------------------|----------------------------|
----------------------------|----------------------------|
-----------------------0----|--4-----4-----4--------0----|
--------------------0-------|--0-----------------0-------|
--0--------0----------------|--0--------0----------------|

 7
----------------------------|----------------------------|
----------------------------|-----------------------2----|
----------------------------|----------------------------|
--2--------------------4----|--------------------2-------|
--0-----------------4-------|--4-------------------------|
--4--------4----------------|--4--------4--------2-------|

 9
--4--------4--------2-----2-------------------------|--------------------2--4--5--------7--------5--4----|
----------------------------------------------------|----------------------------------------------------|
--------------2-------------------------------------|----------------------------------------------------|
--------------------------------------------0-------|--4-----------4-----------------------------0-------|
--------------------------------------0-------------|--0-----------------------------------0-------------|
--0-----------------0-------------------------------|--0-----------------0-------------------------------|

 11
--2--------2--------0-----0-------------------------|--------0--------0----------|
----------------------------------------------------|----------------------------|
--------------------------------------------1-------|--------1--------1-----1----|
--------------------------------------1-------------|--------------------1-------|
--4-----------------4-------------------------------|--4--------4----------------|
----------------------------------------------------|----------------------------|

 13
--4--------4--------2-----2-------------------------|----------------------------------------------------|
----------------------------------------------------|--------------------------------------------0-------|
--------------2-------------------------------------|--------------------------1--------2----------------|
--------------------------------------------0-------|--4-----------------4-----------------------0-------|
--------------------------------------0-------------|--0-----------------------------------0-------------|
--0-----------------0-------------------------------|--0-----------------0-------------------------------|

 15
----------------------------------------------------|--------------------------0-------------------------|
----------------------------------------------------|----------------------------------------------------|
--4--------6--------6-------------------------------|--------------------6--------------6----------------|
--------------------------------------------4-------|--4-----------------------------------------7-------|
--------------------------------------4-------------|--4-------------------------------------------------|
--4-----------------4-------------------------------|--4-------------------------------------------------|

 17
----------------------------|----------------------5---------------7s-9------|
--------7--------7----------|--------------------------7---------------------|
----------------------------|------------------------------------------------|
--------7--------7-----0----|--4------------------------------------------0--|
--------------------0-------|--0--------------------------------------0------|
--0--------0----------------|--0-------------------0-------------------------|

 19
--7--------9--------4-----------------------0-------|--------0--------0----------|
--------------------------------------7-------------|----------------------------|
--------------------------------------------6-------|----------------------------|
--------------------------------------6-------------|--------6-----------6-------|
--4-----------------4-------------------------------|--4--------4-----------7----|
----------------------------------------------------|----------------------------|

 21
----------------------------------------------------|--------------0-----2-----4--------5--------4-------|
----------------------------------------------------|--------0-------------------------------------------|
-----------------------------------1--------2-------|--1-------------------------------------------------|
--4-----------0-----2-----4-------------------------|--------------------------------------------2-------|
--------0-----0-------------------------------------|----------------------------------------------------|
--0-------------------------------------------------|--2-----------------2-------------------------------|

 23
--4-------------------------|----------------------------|
-----------------------7----|--7-------------------------|
----------------------------|----------------------------|
--6--------------------4----|--4-----------------2-------|
--------------------4-------|--------------------2-------|
--4--------4----------------|--4--------4--------2-------|

 25
  ||
  \/Rake down
--5-------------------------|--------------0-------------|--4-------------------------|
--7-------------------------|--0-----------0-------------|--5-------------------------|
--6-------------------------|--1-----------1-------------|--4-------------------------|
--4--------------------0----|--4--------------------0----|--------------------6-------|
--0-----------------0-------|--------------------0-------|--4--------4----------------|
--0--------0----------------|--0--------0----------------|-----------------------4----|

 28
--5-----------4-----0-------|--0-------------------------|--------------7-----12------|
--7-----------5-----0-------|--2-------------------------|--------------7-----9-------|
--6-----------4-----1-------|--2-------------------------|--------------9-----9-------|
----------------------------|-----------------------0----|-----------------------0----|
--4--------4----------------|--------------------0-------|--------------------0-------|
--------------------2-------|--0--------0----------------|--0--------0----------------|

 31
--7-----------5-------------|--4-----------------0-------|----------------------------|
----------------------------|--5-----------7-----0--7----|----------------------------|
--4-----------6-------------|--4-----------6--------6----|----------------------------|
--4-----------7--------4----|--------------7--------7----|-----------------------0----|
--------------------4-------|----------------------------|--------------------0-------|
--4--------4----------------|--4--------4----------------|--0--------0----------------|

 34
--------------2-------------|--4-------------------------|--5-----------4-------------|
--0-----------5-------------|--5-------------------------|--7-----------5-----5-------|
--2-----------4-------------|--4-------------------------|--4-----------------4-------|
--4--------------------0----|--4--------------------4----|--4-----------------2-------|
--------------------0-------|--4-----------------4-------|--4-------------------------|
--0--------0----------------|--4--------4----------------|--4--------4--------2-------|

 37
----------------------------|--------------0-------------|--2-------------------------|
--2-------------------------|--------------0-------------|--2-------------------------|
--2-------------------------|--------------1-------------|--2-------------------------|
--2--------------------0----|----------------------------|--4--------------------4----|
--------------------0-------|--------------------4-------|--------------------4-------|
--0--------0----------------|--0--------0----------------|--4--------4----------------|

 40
----------------------------|----------------------------|--2-----2-----2-----2-------|
----------------------------|----------------------------|--2-----2-----2-----2-------|
-----------6--------4-------|----------------------------|--2-----2-----2-----2-------|
-----------4--------2-------|-----------------------0----|-----------------------0----|
--4--------4--------2-------|--------------------0-------|--------------------0-------|
--4--------4--------2-------|--0--------0----------------|--0--------0----------------|

 43
----------------------------|----------------------------|--------------2-------------|
--5-------------------------|----------------------------|-----------2-----------2----|
----------------------------|--6-------------------------|--------4-----------4-------|
-----------------------4----|--7--------4--------2-------|-----4-----------4----------|
--4-----------------4-------|-----------4--------2-------|--5-------------------------|
--4--------4----------------|--4--------4--------2-------|----------------------------|

 46
--0-----------2-------------|--------------2-------------|
-----------2-----------2----|-----------2-----------2----|
--------4-----------4-------|--------4-----------4-------|
-----4-----------4----------|-----4-----------4----------|
----------------------------|--5-------------------------|
----------------------------|----------------------------|

 48
--0-----------2-------------|--------------2-------------|
-----------2-----------2----|-----------2-----------2----|
--------4-----------4-------|--------4-----------4-------|
-----4-----------4----------|-----4-----------4----------|
----------------------------|--5-------------------------|
----------------------------|----------------------------|

 50
--0-----------2-------------|--------------2-------------|
-----------2-----------2----|-----------2-----------2----|
--------4-----------4-------|--------4-----------4-------|
-----4-----------4----------|-----4-----------4----------|
----------------------------|--4-------------------------|
-----0----------------------|----------------------------|


--0-----------2-------------||
-----------2-----------2----||
--------4-----------4-------||
-----4-----------4----------||
----------------------------||
----------------------------||

        
Comments

@TheDoomOfAllFires (April 08, 2014 at 9:27 PM)

Now, it's my turn to tell you that you did a great job :P


@thedstring (April 09, 2014 at 3:38 AM)

Thanks! What do you think of the duet? I think the sound clip for it is really nice =)


@TheDoomOfAllFires (April 09, 2014 at 8:15 AM)

Both the solo and the duet versions sound great ! I rated both 5* but only commented on this one, sorry :P


@Warguyver (April 20, 2014 at 6:49 AM)

Amazing job, sounds great =) If possible, could you also upload the gp5 version of this tab?


@thedstring (April 21, 2014 at 3:02 AM)


@Warguyver (April 22, 2014 at 1:07 AM)

Ah, excellent. I'm terrible at timing so guitar pro is my crutch ^_^


@diralark (May 29, 2014 at 11:20 AM)

well done even if I won't play it in the future coz' my favorite version is still the mackytube3216 @Youtube and probably the best version for ever : https://www.youtube.com/watch?v=VtSHSP4iK1M#t=07m00s Anyway the whole tab (medley) is awesome, if u don't get it : https://googledrive.com/host/0B5Ciibr41MNmYXRSMlFyOU45eGs/