Gametabs
Home
Tabs
Random

Tsubasa wa Pleasure Line Solo

Average rating: 5.000

1 ratings

Composer:

Tabber:

Style:

Instrument:

Created: March 17, 2009 at 12:00 AM

                                    Tsubasa wa Pleasure Line Solo                           


                                                              Kuribayashi Minami
Solo Guitar



      E    E   E   E   H          
E||--10b--10--12--10--12~--------|
B||------------------------------|
G||------------------------------|
D||------------------------------|
A||------------------------------|
E||------------------------------|


        |--3--|                                      
    E   S  S  S  S  S  S  S  S  S  S  S  S  S  S  S  
-------------14-17-14-15-16-12-14-13-12-------------|
----------14----------------------------15-14-12-10-|
--/15--15-------------------------------------------|
----------------------------------------------------|
----------------------------------------------------|
----------------------------------------------------|


   S  S  S S  S  S  S S S  S  S S  S S  S S     S  S H.            E   
--------------------------------------------|-------------------------|
--14-12-10-9-10-12-10-9---------------------|-------------------------|
------------------------9-13-12-9-----------|--------9~---------------|
----------------------------------12-9------|-------------------------|
---------------------------------------11-9-|--10-11------------------|
--------------------------------------------|-------------------------|


   E   E  E   E  Q       E  E      E  E   E  Q.      E   E   
--------------------------------|---------------------------|
-----------------9br--------9b--|--L--------------------/6--|
----------9--11---------11------|-----9s--7--6~-------------|
--/9--12------------------------|---------------------------|
--------------------------------|---------------------------|
--------------------------------|---------------------------|


     T         T         T         T             
  S  S   S  S  S   S  S  S   S  S  S   S E   E   
------------------------------------------------|
--6-13p-10p-6-15p-10p-6-13p-10p-6-15p-10----/8--|
------------------------------------------------|
------------------------------------------------|
------------------------------------------------|
------------------------------------------------|


     T         T         T         T              
  S  S   S  S  S   S  S  S   S  S  S   S E    E   
--------------------------------------------/15--|
--8-15p-12p-8-17p-12p-8-15p-12p-8-17p-12---------|
-------------------------------------------------|
-------------------------------------------------|
-------------------------------------------------|
-------------------------------------------------|


   |---3---|            |---3---|            |---3---|  
   S   S   S  E    E.   S   S   S  E    E.   S   S   S  
--14h-15p-14-12--/17---15h-17p-15-14--/19---17p-15p-14-|
-------------------------------------------------------|
-------------------------------------------------------|
-------------------------------------------------------|
-------------------------------------------------------|
-------------------------------------------------------|


   E   S   S   S  S  S  S  S  S  S  Q      S     W                  
--------------------------------17-20b~----L-|---L----------------||
--17--15h-19p-15-------17-19-20--------------|--------------------||
-----------------16-14-----------------------|--------------------||
---------------------------------------------|--------------------||
---------------------------------------------|--------------------||
---------------------------------------------|--------------------||




Duration Legend
---------------
W - whole
H - half
Q - quarter
E - 8th
S - 16th
T - 32nd
X - 64th
. - note dotted
|-n-|  - n-tuplets


Tablature Legend
----------------
L - tied note
x - dead note
g - grace note
(n) - ghost note
> - accentuded note
NH - natural harmonic
AH - artificial harmonic
TH - tapped harmonic
SH - semi harmonic
PH - pitch harmonic
h - hammer on
p - pull off
b - bend
br - bendRelease
pb - preBend
pbr - preBendRelease
brb - bendReleaseBend
\n/ - tremolo bar dip
\n - tremolo bar dive
-/n - tremolo bar Release up
/n\ - tremolo bar inverted dip
/n - tremolo bar return
-\n - tremolo bar Release down
S - shift slide
s - legato slide
/ -  slide into from below or out of upwards
\ -  slide into from above or out of downwards
~ - vibrato
W - wide vibrato
tr - trill
TP - tremolo picking
T - tapping
S - slap
P - pop
< - fade in
^ - brush up
v - brush down

        
Comments

No comments yet