Gametabs
Home
Tabs
Random

Voyage - Another World

Average rating: 5.000

2 ratings

Composer:

Tabber:

Style:

Instrument:

Created: April 04, 2009 at 12:00 AM

            Title: Voyage - Another World
Game: Chrono Cross
Platform: Playstation
Developer/Publisher: Square Eletronic Arts
Composed by: Yasunori Mitsuda

Drop D Tunning

Tempo = 100

E |--------------------4-------------------------------|-----------------------4-------------------------------|
B |-----------4--------------------8-----4-----6-------|--------------4--------------------8-----4-----6-------|
G |----------------------------------------------------|-------------------------------------------------------|
D |--------6--------6--------6-------------------------|-----------6--------6--------6-------------------------|
A |--4-------------------------------------------------|-----4-------------------------------------------------|
D |----------------------------------------------------|-------------------------------------------------------|


-----------------------4-----------------4-----6-------|------------------------4-----------------4------------|
--------------4--------------------8-------------------|---------------4--------------------8------------------|
-------------------------------------------------------|-6h-8--------------------------------------------------|
-----------6--------6--------6-------------------------|----------6--------6--------6--------------------------|
-----4-------------------------------------------------|----4--------------------------------------------------|
-------------------------------------------------------|-------------------------------------------------------|


--4L----------4-----------------------------4----------|-----------------------------------------------4-------|
-----------------8-----4L----------4-------------------|-4L----4-----8------------------------4----------------|
-------------------------------------------------------|-----------------------6h-8----------------------------|
--------------------------------6--------6--------6----|-----------------------------------6--------6--------6-|
--------------------------4----------------------------|-----------------------------4-------------------------|
-------------------------------------------------------|-------------------------------------------------------|


--4L----------4--6--------------------------4----------|-----------------------------------------------4-------|
-----------------------4L----------4-------------------|--4L----4-----8-----------------------4----------------|
-------------------------------------------------------|-----------------------6h-8----------------------------|
--------------------------------6--------6--------6----|-----------------------------------6--------6--------6-|
--------------------------4----------------------------|-----------------------------4-------------------------|
-------------------------------------------------------|-------------------------------------------------------|


--4L----------4-----------------------------4----------|--------------------------------------------4----------|
-----------------8-----4L----------4-------------------|--4L----------4--4--6--4L----------4-------------------|
-------------------------------------------------------|-------------------------------------------------------|
--------------------------------6--------6--------6----|--------------------------------6--------6--------6----|
--------------------------4----------------------------|--------------------------4----------------------------|
-------------------------------------------------------|-------------------------------------------------------|


--------------------------------------------4----------|-----------------------4-----------------4-----6-------|
--4L----------4--------4L----------4-------------------|--4-----------4--------------------8-------------------|
-----------------5--6----------------------------------|-------------------------------------------------------|
--------------------------------6--------6--------6----|-----------6--------6--------6-------------------------|
--------------------------4----------------------------|-----4-------------------------------------------------|
-------------------------------------------------------|-------------------------------------------------------|


-----------------------------------------------4-------|-------------------------------------------------------|
--------------------4----------------------------------|-------------------------------------------------------|
--6--------------6--------------5--------6-------------|--6L----6--6L----6--6----------------------------------|
-----------------------------4--------4--------------4-|--------------------------3--6-----3-----6-----3-----6-|
-------------------------------------------------------|-------------------------------------------------------|
-----------------------4-------------------------------|----------------------3--------------------------------|


-------------------------------------------------------|-------------------------------------------------------|
--------1--2-----4-------------------------------------|-6-----------------------------------------------------|
--3-----------------------1L----1L-1-----------2-----5-|---8h-6--5---------------------------------------------|
-----------------------3--------------------3----------|---------------------8------------6------------------8-|
--------------------1-----------------0----------------|-------------------------------8------------------6----|
-------------------------------------------------------|--------------------------------------------5----------|


-------------------------------------------------------|-------------------------------------------------------|
-------------------------------------------------------|-------------------------------------------------------|
-----------------------------6-----------------6-------|-----6--8--5-----------------------------------------8-|
--6-----------6-----8--------------6-------------------|--------------------6-----8L-------8-----6L----6-------|
-----------6-----------------------------6-------------|-----------------6-------------------------------------|
-----6-------------------------------------------------|-------------------------------------------------------|


-------------------------------------------------------|-------------------------------------------------------|
-6---6--7--6--------------4----------------------------|-4----4--5--4------------------------------------------|
--------------6--------6-------------------------------|---------------4----------4----------------------------|
--------------------6--------6--------------4-----6----|-----------------------4--------4-----------2-----4----|
-----------------4-----------------------4-----------4-|------------------2----------------------2-----------2-|
-----------------------------------4-------------------|-----------------------------------2-------------------|


------------------------0------------------------------|----------0--------------------------------------------|
-2-----2-----3-----2h-3---------------0----------------|-0-----3------------------------------------------0--2-|
---------------------------------2-------------2-----2-|----6---------------------------------------2----------|
------------------------------2----------2-------------|---------------------5-----7-------------2-------------|
---------------------------0---------------------------|------------------5-----------5----0-------------------|
--------------------------------------------0----------|------------5------------------------------------------|


--13-------13-14-13-9-------------9--------------------|--11-------11-12-11-7----------------------------------|
--------------------9----------9-----------------9-----|----------------------------------12--------7----------|
--10-------10-11-10------------------------------------|--8--------8--9--8-------------11----------------------|
--11-------11----11-11------------------------------11-|--9--------9-----9--9--------------------------9-------|
--------------9----------------------------------------|--------------7----------------------------------------|
-------------------------------------------------------|-------------------------------------------------------|


--9--------9--10-9--------------------------12---------|-7----14-----13---------11h9h-8------------------------|
--------------------10------------10-----------10------|-0-------------------------------------------8----9----|
--6--------6--7--6-------------9-----------------------|------11-----10---------------------0-----7----8-----8-|
--7--------7--0--7--7----------------------------------|-------------11----------------------------------------|
-------------------------------------------------------|-------------------------------------------------------|
-------------------------------------------------------|-------------------------------------------------------|


-9------------------------8--------11------------------|--4---------------------------------------------------||
-----------------------9--------9--------------------7-|-----------------------4-----------------7-----6------||
-6---------6h-8--------------------------------6-------|--------------6--------------------6------------------||
-----------------------------------------6-------------|-----------6--------6--------6------------------------||
-------------------------------------------------------|-----4------------------------------------------------||
-------------------------------------------------------|------------------------------------------------------||


Legend
L - tied note
x - dead note
h - hammer on/pull off
b - bend
s - slide
~ - vibrato
g - ghost note
> - accentuated note
t - trill
M - palm mute
. - staccato
P - popping (bass)
S - slapping (bass)
+ - tapping
W - wide vibrato
< - fade in
w - whammy bar
= - tremolo picking
v - brush up
^ - brush down
V - pick stroke up
n - pick stroke down
        
Comments

@goldblade0 (April 05, 2009 at 2:26 AM)

Page title says "Another Termina" instead of "Voyage - Another World"