Gametabs
Home
Tabs
Random

Reminiscence

Average rating: 5.000

3 ratings

Composer:

Tabber:

Style:

Instrument:

Created: March 04, 2020 at 12:00 AM

                                             REMINISCENCE                                   


Traccia 1 (Capo 1)
     Q    Q    Q    E  E       E  E  H        E  E     E  E  H        E  E   
E||-----------------------||---------0-----------0--|-----------------------|
B||--------------------0--||---2--L--2--------L--L--|--4--L--0-----------0--|
G||-----------------------||*--------4--------L--L--|-----------------------|
D||-----------------------||*-----2-----------------|-----2--4--------L--L--|
A||-----------------------||---0--------------------|--0--------------------|
E||-----------------------||------------------------|-----------------------|


  E  E  H        S S E     E  E  E  E  Q    E  E     E  E  E  E  Q    E  E   
--------0---------------|-------------------------|-------------------------|
--2-----2--------4-5-7--|--5--L--L--L-------4--0--|--2--L--L----------0-----|
--------4---------------|--4--L--L--L-------------|----------------------2--|
-----2------------------|--------------L----------|-----------4-------------|
--0---------------------|--4-----6--7-------------|--0-----2--4--L----L--L--|
------------------------|-----4-------------------|-----0-------------------|


  E  E  E  E  E  E  S S E     E  E  E  E  E  E  S S E     E  E  E  E  H         
-----0--------------0-2-4--|--2--L--L--L--L--L--0-2-4--|--2-----L--2--L--------|
--0-----4--5--L--L--2-L-L--|--3--L--L--L--L--L---------|--4--L--2--4--L--------|
-----------4--L--L---------|--2------------------------|--4--L-----------------|
--4--2--6--6--L--6---------|--0-----0--2--L--0--L-L-L--|-----4-----------------|
-----------4--L------------|-----0---------------------|--2--------------------|
--4------------------------|---------------------------|-----------------------|


  Q    Q    Q    Q       E  E  E  E  E  E  E  E     E  E  E  E  E  E  E  E   
----------------------|-----------7--5--L--------|--------------------0-----|
-------4----5----7----|--9--L--------5--L-----7--|--9--L-----------------7--|
-------4----6----8----|--------------------------|--------------------------|
----------------------|--9--L--6--L--------7--L--|--9--L--6--7--L--6--L--L--|
--2----L----L----9----|--------7--L-----6--9--L--|--------7--9--L--7--L--L--|
----------------------|--0--7--------0-----------|--0--7--------------------|


  E  E  E  E  E  E  E  E     E  E  E   E   E  E  E  E   
-----------7--5--L--------|-------------------------4--|
--9--L--------5--L-----7--|--9--L----------------7-----|
--------------------------|-------------------------4--|
--9--L--6--L--------7--L--|--9--L----------------------|
--------7--L-----6--9--L--|--------9--11---L--9--6-----|
--0--7--------0-----------|--0--7----------------------|


  E  E  E  E  E  E  E  E     E  E  E  E  Q    E  E     E  E  E  E  E  E  E  E   
--------------2-----------|-------------------------|-----------7--5--L--------|
--5--L--4--5-----2--4--5--|--5--L--L--2--4----5--7--|--9--L--------5--L-----7--|
--6-----------------------|--4-----4-----4----------|--------------------------|
--6--6--------------4--L--|--4--4--------4----------|--9--L--6--L--------7--L--|
--4--------------4--------|--2-----------6----L--L--|--------7--L-----6--9--L--|
--------------2-----------|-------------------------|--0--7--------0-----------|


  E  E  E  E  E  E  E  E     E  E   E   E   E   E   S  S  E   
--------------------0-----|-------------------------------9--|
--9--L-----------------7--|--9--L------12--10---L--10-12-----|
--------------------------|----------------------------------|
--9--L--6--7--L--6--L--L--|--9--L----------11------11--L--L--|
--------7--9--L--7--L--L--|--------11---L------12------------|
--0--7--------------------|--0--7-----------9----------------|


  E  E  E  E  Q    E  E     E  E  E  E  E  E  E  E     E  E  E  E  H         
-----------0-------------|--------------------4-----|--0--L--L--2-----------|
--7--L--------4----5--4--|--5--L--4--5--L--L-----7--|--0-----0--L--2--------|
--------6----------------|--6-----------------4--L--|--1--1--------1--------|
-------------------------|--6--6-----------6--------|--------------2--------|
-----9-------------------|--4-----------3-----------|--2-----------1--------|
--7----------------------|--------------------------|-----------------------|


  Q    E  E     E  E  E  E  E  E  S S S S    E  E  E  E  Q    Q     
-------------|--0--L--L--L--L--0--0-2-4-0-|--2--L-----2--L----0----|
--L----2--4--|--2-------------------------|--4--L--2--4--L---------|
--L----------|--1--------1--L--L----------|--4--L------------------|
--L----------|-----------2--L--L----------|-----4------------------|
--L----------|--0-----4-------------------|--2---------------------|
-------------|-----0----------------------|------------------------|


  E  E  E  E  E  E  E  E     H.           E  E       W                  
--0--L--L--L--------------|--0------------L------||--0----------------||
--0--L--L--L--0-----------|--0------------L--0---||--0----------------||
--2--L--L--2--------1--2--|--1------------L-----*||--1----------------||
--------2--------4--------|--2------------L-----*||--2----------------||
-----2--------------------|----------------------||-------------------||
--0-----------------------|----------------------||-------------------||




Duration Legend
---------------
W - whole
H - half
Q - quarter
E - 8th
S - 16th
T - 32nd
X - 64th
. - note dotted
|-n-|  - n-tuplets


Tablature Legend
----------------
L - tied note
x - dead note
g - grace note
(n) - ghost note
> - accentuded note
NH - natural harmonic
AH - artificial harmonic
TH - tapped harmonic
SH - semi harmonic
PH - pitch harmonic
h - hammer on
p - pull off
b - bend
br - bendRelease
pb - preBend
pbr - preBendRelease
brb - bendReleaseBend
\n/ - tremolo bar dip
\n - tremolo bar dive
-/n - tremolo bar Release up
/n\ - tremolo bar inverted dip
/n - tremolo bar return
-\n - tremolo bar Release down
S - shift slide
s - legato slide
/ -  slide into from below or out of upwards
\ -  slide into from above or out of downwards
~ - vibrato
W - wide vibrato
tr - trill
TP - tremolo picking
T - tapping
S - slap
P - pop
< - fade in
^ - brush up
v - brush down

        
Comments

@thedstring (March 10, 2020 at 11:18 PM)

Awesome, favorited!


@chimatte (March 18, 2020 at 10:05 AM)

The following guitar performance is combined with the tablature.https://www.gametabs.net/recording/chimatte/reminiscence