Gametabs
Home
Tabs
Random

Quitting the Body

Average rating: 4.833

6 ratings

Composer:

Tabber:

Style:

Instrument:

Created: September 16, 2008 at 12:00 AM

                                          Chrono Cross - Quitting the Body

Arranged by Joel McCoy (BooDoo) for DADGAD tuning with Capo @ 5th fret
Based on music by Yasunori Mitsuda and guitar arrangement by Matt Washimi

This should sound fine whether you mute lead notes after their stated 
duration or allow them to ring.
The lower bass notes should be allowed to ring when possible- durations 
are not noted in this TXT for that second voice.
In bars 11 and 12 the 'bass' voice (with held notes) climbs and mingles 
with the lead voice- I've marked this with asterisks (*)

Suggested tempo is somewhere around Q=70~74, song is in the key of Cm (bbb)


DADGAD Guitar (Capo 5)

Section A
           ^                               ^             
     E  E  Q    E  E  E  E     E  E  E  E  E  S S E  E   
D||--------0----------------|---------------------------|
A||--------1----3-----1--0--|--0--1--0------------------|
G||--0-----0----2-----------|--2-----------0------0-----|
D||-----0-------------------|--3-----0--3--1----3-------|
A||----------------3--------|-----------------1------1--|
D||--5----------3-----------|--0-----------1------------|

                                                   |(Segno) Section B
  v                          v           ^                  ^                 
  E  E  E  E  E  E  E  E     E  E  E  E  Q    Q       E  E  Q    E  E  E  E   
-----------------3--3-----|--------------0---------|--------0----------------|
-----3-----6--3-----------|--5--------3--0---------|--------1----3-----1--0--|
--0-----------2-----2-----|--3-----3-----7----2----|--0-----0----2-----------|
--1-----0--------------3--|--3--3--------4---------|-----0-------------------|
--3-----------------------|--------------0---------|----------------3--------|
--------------3-----------|--3-----------0---------|--5----------3-----------|


                                                                     ^         
  E  E  E  E  E  S S E  E     E  E  E  E  E  E  E  E     E  E  E  E  H         
---------------------------|--------------------------|-----------------------|
--0--1--0------------------|--------1-----------------|-----------3-----------|
--2-----------0------0-----|--0--5-----5--2-----------|--0-----0-----4--------|
--3-----0--3--1----3-------|--1-----1-----3-----3-----|-----0--------5--------|
-----------------1------1--|--3--------------3-----3--|--------------5--------|
--0-----------1------------|--------------0-----------|--5-----------5--------|


                                            |--3--|        
  E  E  E  E  E  E  E  E     E  E  E  E  E  S  S  S E  E   
--------------------------|--------0-----2--2h-3p-2-0-----|
--------5--3--5-----------|----------------------------3--|
--0-----3-----------0-----|--0-----0-----2----------------|
-----0-----------------3--|--1-----------3----------------|
-----------------3--------|-----1-----1--3----------------|
--5-----------3-----------|--1----------------------------|


  E  E  E  E  E  E  E  E     E  E  E  E  E  E    E  E   
--0-----------------------|-------------------------3--|
--------------------------|-----------0--1--3--3g0-----|
--------------------------|--------0-------------------|
--------1----*0-----------|-*1----------*3-------------|
-*3-----------3-----8-----|--------6-------------------|
-----5-----5-----5-----5--|-----8-------*3-------------|


  E  E  E  E  E  E  E  E     E  E  E  E  E  E  E  E   
-----------------------0--|--------------------------|
--------------3-----------|--------------------5-----|
--0-----3-----------2-----|--------3-----0-----3-----|
--------5-----3-----3--0--|--------5-----0--------0--|
-----5-----5-----5--------|-----5-----5-----5--------|
--5-----------------------|--5-----------5-----------|


                                               |--3--|   
  E  E  E  E  E  E  E  E     E  E  E  E  E  E  E  E  E   
--------------------------|-----------------------------|
--3-----------------------|-----------------------------|
--2-----------2-----------|--------2--------------------|
--------3-----3-----3-----|--3-----------3-----3--5--7--|
-----3-----3-----3-----3--|-----3-----3-----3-----------|
--3-----------3-----------|--3-----------------3--------|


                             ^                     
  E  E  E  E  E  E  E  E     H        E  E  E  E   
--------------------------|-----------------------|
--------------------------|--1-----------0--1--3--|
--------3-----5-----2-----|--3--------0-----3-----|
--5-----5-----3-----3-----|--0--------------------|
-----5-----5-----5-----5--|--5--------------------|
--5-----------------------|--5--------0-----3-----|

 Section C

    S S S S S S S S S S S S S S S S    S S S S S S S S S S S S S S S S  
|---0-----0-----0-----0-----0-------|--0-----0-------------------------|
|-------------------------------3---|--------------3-1-0-----0---------|
|*--0---0-----0-----0-----0-------0-|--0---0-----0-----------------0---|
|*----1-----1-----1-----1-----1-----|----1-----1-----------1-----1---1-|
|-----------------------------------|--------------------1-----1-------|
|---1-------------------------------|--1---------------1---------------|


  S S S S S S S S S S S S S S S S    S S S S S S S S S S S S S S S S  
----------------------------------|----------------------------------|
----------------------------------|----------------------------------|
--2-----2-----5-3-2-----2---------|--0---------------------------5---|
------3-----3---------3-------3-0-|--0-----5-----5---7-----5---------|
----5-----5---------5-------5-----|------5-----5---5-----5-----5---5-|
--5---------------5-------5-------|--5-5-----5---------5-----5---5---|


  S S S S S S S S S S S S S S S S    S S S S S S S S S S S S S S S S  
--0-----0-----0-----0-----0---3-1-|--0-----0-----0-------------------|
----------------------------------|------------------3-----3-----3---|
--0---0-----0-----0-----0---0-----|------0-----0---0-----0-----0---0-|
----1-----1-----1-----1-----------|----1-----1---------1-----1-------|
----------------------------------|----------------------------------|
--1-------------------------------|--1---------------1---------------|


1st Ending------------------------------------------------||
                                     v              ^       
  S S S S S S S S S S S S S S S S    Q    Q    Q    Q       
----------------------------------|--0----3----5----------||
--5-----5-----5-----5-----5-----5-|--1----1----5----------||
--3---3-----3-----3-----3-----3---|--3---------2----5----*||
----5-----5-----5-----5-----5-----|--5----3---------5----*||
----------------------------------|--5----1----1----5-----||
--5-------------------------------|--5--------------3-----||

2nd Ending---------------------------------- D.S. al fine||
Section C'
                                     ^                     
  S S S S S S S S S S S S S S S S    Q    Q    Q    Q      
----------------------------------|--0-------------------||
--5---------------5-----------0---|--0---------0---------||
--------2-----2---------2---------|--7-------------------||
------5-----5---5-----5-----5---5-|--4----0---------4----||
----5-----5---------5-----5-------|--0-------------------||
----------------------------------|--0-------------------||




Duration Legend
---------------
W - whole
H - half
Q - quarter
E - 8th
S - 16th
. - note dotted
|-n-|  - n-tuplets


Tablature Legend
----------------
L - tied note
g - grace note
^ - brush up
v - brush down

        
Comments

@DuoDn (September 17, 2008 at 8:49 PM)

Ill be the first to say good work this is an amazing arrangment


@TrangOul (September 18, 2008 at 8:49 AM)

As I stated earlier, in my opinion the alternate tuning just adds to its difficulty. Nonetheless, after some practice this surely sounds pretty decent.


@Frogma (November 05, 2008 at 2:03 PM)

Wow. What a smashing song.


@LTRobson (February 08, 2010 at 2:59 AM)

I might have a little trouble playing this chord:


--0--
--1--
--3--
--5--
--5--
--5--