Gametabs
Home
Tabs
Random

On The Beach of Dreams - Another World

Average rating: 5.000

5 ratings

Composer:

Tabber:

Style:

Instrument:

Created: September 30, 2008 at 12:00 AM

            On The Beach of Dreams (Another World)                      
~Chrono Cross~
Composed By: Yasunori Mitsuda
Tabbed By: Justin Lincoln


      E  S S S S S  S E  S S S S S  S    E  S S S S S  S E  S S S S E   
E||--------1-L---0h-1------1-L---0h-1-|-------1-L---0h-1------0-L------|
B||-----------------------------------|-----------------------------3--|
G||*-----2-----2---------2-----2------|-----2-----2---------2-----2----|
D||*--0---------------0---------------|--------------------------------|
A||-----------------------------------|--1---------------1-------------|
E||-----------------------------------|--------------------------------|


  E  S S S S S  S E  S S S S E     E  S S S S S  S E  S S S S E   3x
-------5-L---3h-5------6-L---5--|-------3-L---1h-3------1-L---0---||
--------------------------------|---------------------------------||
-----5-----5---------5-----5----|-----0-----0---------0-----0----*||
--3---------------3-------------|--------------------------------*||
--------------------------------|--3---------------3--------------||
--------------------------------|---------------------------------||


   E  S S S S S  S E  S S S S S  S    E  S S S S S  S E  S S S S S  S  
-----------------------------------|----------------------------------|
--------3-L---1h-3------3-L---1h-3-|-------1-L---0h-1------1-L---0h-1-|
*----------------------------------|----------------------------------|
*-----3-----3---------3-----3------|-----2-----2---------2-----2------|
---1---------------1---------------|--0---------------0---------------|
-----------------------------------|----------------------------------|

  1st ending --------------------------------------------------------,
  E  S S S S S  S E  S S S S S  S    E  S S S S S  S E  S S S S S  S    
-------0-L-------------0-L--------|-------0-L-------------0-L---------||
-------------1h-3------------1h-3-|-------------1h-3------------1h-3--||
-----2-----2---------2-----2------|-----2-----2---------2-----2------*||
--0---------------0---------------|--0---------------0---------------*||
----------------------------------|-----------------------------------||
----------------------------------|-----------------------------------||

  2nd ending -----------------------------------------------------
  E  S S S S S  S E  S S S S S  S    E  S S S S S  S S S S S S S E   
----------------------------------|----------------------0---1---0--|
-------0-L-------------0-L--------|-------2-L---0h-2-3--------------|
-------------2h-4------------2h-4-|---------------------------------|
-----0-----0---------0-----0------|-----2-----2--------2---2---2----|
----------------------------------|--0------------------------------|
--3---------------3---------------|---------------------------------|

           Da Capo
  W                  
--5----------------||
--5----------------||
-------------------||
-------------------||
-------------------||
-------------------||




Duration Legend
---------------
W - whole
H - half
Q - quarter
E - 8th
S - 16th
T - 32nd
X - 64th
. - note dotted
|-n-|  - n-tuplets


Tablature Legend
----------------
L - tied note
h - hammer on
Da Capo - Play from the beginning

        
Comments

@archard (October 01, 2008 at 4:19 AM)

Good job, but I have to say I liked the level of arrangement in Stamen's tab, http://www.gametabs.net/playstation/chrono-cross/another-world. This is much less risky than most of your other arrangements. I still like it though :)


@karathrow (June 02, 2012 at 7:39 PM)

comment field is required.