Gametabs
Home
Tabs
Random

On the Beach of Dreams - Another World

Average rating: 5.000

1 ratings

Composer:

Tabber:

Style:

Instrument:

Created: August 03, 2010 at 12:00 AM

                          On the Beach of Dreams - Another World BASS TAB
                       Composed by Yasunori Mitsuda
                             From Chrono Cross

                  Tabbed by Auriplane ([email protected])



                                                              --------|
Five-string bass, standard tuning.  musenji is making a       --------|
tab for this with four strings, so I thought I'd make one     --------|
for five :-D  Click the download link for the PDF and GP5.    ------5-|
                                                              --------|


G |----------------|----------------|----------------|----------------|
D |----------------|----------3---3-|------------353-|----------------|
A |5-------------35|----------------|-----------3----|3-----------353-|
E |----------------|6-----------6---|----------------|-----------3----|
B |----------------|----------------|6---------------|----------------|


        Part A


G |----------------|----------------|----------------|----------------|
D |----------------|------------3---|------------353-|----------------|
A |5-------------35|----------------|-----------3----|3-----------353-|
E |----------------|6-------------6-|----------------|-----------3----|
B |----------------|----------------|6---------------|----------------|


G |----------------|----------------|----------------|----------------|
D |----------------|----------------|3----/5\3-----3-|----------------|
A |5-------------3-|----------------|-----------3----|3---------3---3-|
E |----------------|6-------------6-|----------------|------------3---|
B |----------------|----------6-----|----------------|----------------|


        Part B


G |----------------|----------------|----------------/7-5-------------|
D |----------------|----------------|------7---------|---7-57---------|
A |----------------|------7---------|5-----------5---|------------5---|
E |6-------------6-|5-----------5---|----------------|----------------|
B |----------------|----------------|----------------|----------------|


G |----------------|----------------|----------------|----------------|----------------|
D |------3---------|----------------|----------------|------------575-|7-----5---------|
A |----------------|------7---------|------------5---|-----------5----|------------7---|
E |6-----------6---|5-----------5---|3---------3---3-|5---------------|----------------|
B |----------------|----------------|----------------|----------------|----------------|


G |----------------|----------------|----------------|----------------|
D |----------------|----------------|----------------|----------------|
A |5-------------5-|----------------|----------------|3---------------|
E |----------------|6-------------6-|----------------|------------3---|
B |----------------|----------------|6-------------6-|----------------|


        Repeat back to Part A.



        
Comments

@pedroZ (August 29, 2010 at 6:49 AM)

woooo this is a great score hear this gamatabs friends http://www.mediafire.com/?xlg8xbb3wk4pw5q