Gametabs
Home
Tabs
Random

Lost Before Light

Average rating: No ratings

Composer:

Tabber:

Style:

Instrument:

Created: October 01, 2007 at 12:00 AM

            Lost Before Light
Chrono Cross
Composed by Yasunori Mitsuda

11/2/06

Guitar 1
e---------------------------------
B------10-9-----------------------
G--8-9------8---6-8---6-8---6-8--6
D---------------------------------
A---------------------------------
E--------------------------------- x2

e----------------4---5---------------4---11----7
B----------4-5-7-------7---5-4---4-5---7-------7
G------4-6-------------------------------------8
D--6-7------------------------------------------
A-----------------------------------------------
E-----------------------------------------------

Guitar 2
e---------------------------------
B---------------------------------
G------6-------4-------2---4---4--
D----6---6---4---4---2---2---2---2
A--4-------2-------0--------------
E--------------------------------- x2

e-----------------------------------------------------------
B-----------------------------------------------------------
G----------2---4-------------------4--------------8--6------
D------4----------------9-------4-----------6-----------6--6
A----4---4---4---4----7------2----------4------------------4
E--2----------------5---------------------------------------

        
Comments

@Levygs (November 07, 2007 at 4:14 AM)

I always like this song. Makes me feel, I don't know...