Gametabs
Home
Tabs
Random

Woods Darker than Night

Average rating: 5.000

1 ratings

Composer:

Tabber:

Style:

Instrument:

Created: June 07, 2014 at 12:00 AM

               	 	Woods Darker Than Night
                                
Child of Light
Coeur de pirate
Guitar Arrangement by Basisti94 (Miro Laaksonen)
7.6.2014


Capo 3
Tempo ~ 90

     Q    H        E  E     Q    H        E  E     Q    H        E  E   
E||----------------------|----------------------|-------0--------L-----|
B||--1-------------L--1--|--0-------------L--0--|--1----------------1--|
G||-------2--------------|-------1--------------|-------2--------------|
D||-------2--------------|-------2--------------|-------2--------------|
A||--0-------------------|----------------------|--0-------------------|
E||----------------------|--4-------------------|----------------------|


  Q    H        E  E     Q    H        E  E     Q    H        E  E   
----------------------|----------------------|----------------------|
--0-------------------|----------------------|----------------------|
-------1--------L--1--|--2-------------L--2--|--2-------------L--2--|
-------2--------------|-------3--------------|-------2--------------|
----------------------|-------3--------------|-------0--------------|
--4-------------------|--1-------------------|--0-------------------|


  Q    H        E  E     Q    H.              Q    Q    Q    E  E   
----------------------|--------------------|-------0---------------|
-------------------1--|--------------------|--1-----------------1--|
--2-------------L-----|--2-----------------|-------2----2----2-----|
-------3--------------|-------2------------|-------2----2----2-----|
-------3--------------|-------0------------|--0--------------------|
--1-------------------|--0-----------------|-----------------------|


  Q    Q    Q    E  E     Q    Q    Q    E  E     Q    Q    Q    E  E   
-----------------------|-------0---------------|-----------------------|
--0-----------------0--|--1-----------------1--|--0--------------------|
-------1----1----1-----|-------2----2----2-----|-------1----1-------2--|
-------2----2----2-----|-------2----2----2-----|-------2----2----2-----|
-----------------------|--0--------------------|-----------------------|
--4--------------------|-----------------------|--4--------------------|


  Q    Q    E  E  E  E     Q    Q    Q    E  E     Q    Q    E  E  E  E   
------------------------|-----------------------|------------------------|
------------------------|-----------------------|------------------1-----|
--2------------2-----2--|--2-----------------2--|--2------------2-----2--|
-------3----3-----3-----|-------2----2----2-----|-------3----3-----3-----|
-------3----3-----3-----|-------0----0----0-----|-------3----3-----3-----|
--1---------------------|--0--------------------|--1---------------------|


  Q    Q    Q    E  E     Q    Q    E  E  E  E     Q    Q    E  E  E  E   
--------------------0--|--1------------1-----1--|--0------------0-----0--|
-----------------------|-------3----3-----3-----|-------1----1-----1-----|
--2--------------------|-------2----2-----2-----|-------0----0-----0-----|
-------2----2----2-----|--0---------------------|-------2----2-----2-----|
-------0----0----0-----|------------------------|--3---------------------|
--0--------------------|------------------------|------------------------|


  Q    Q    E  E  E  E     Q    Q    E  E  E  E     Q    Q    E  E  E  E   
------------------------|---------------0--1--0--|--1------------1--0--1--|
---------------1-----1--|------------------------|-------3----3-----------|
--2---------------2-----|--2---------------2-----|-------2----2-----2-----|
-------2----2-----2-----|-------2----2-----2-----|--0---------------------|
--0---------------------|--0---------------------|------------------------|
------------------------|------------------------|------------------------|


  Q    Q    E  E  E  E     Q    Q    E  E  E  E     Q    Q    Q    E  E   
--0------------0--------|---------------0-----0--|--------------------0--|
-------1----1-----3--1--|---------------1-----1--|-----------------------|
-------0----0-----0-----|--2---------------2-----|--2--------------2-----|
-------2----2-----2-----|-------2----2-----2-----|-------2----2----2-----|
--3---------------------|--0---------------------|--0--------------------|
------------------------|------------------------|-----------------------|


  Q    Q    E  E  E  E     Q    Q    E  E  E  E     Q    Q    E  E  E  E   
--1------------1-----1--|--0------------0-----0--|------------------------|
-------3----3-----3-----|-------1----1-----1-----|---------------1-----1--|
-------2----2-----2-----|-------0----0-----0-----|--2---------------2-----|
--0---------------------|-------2----2-----2-----|-------2----2-----2-----|
------------------------|--3---------------------|--0---------------------|
------------------------|------------------------|------------------------|


  Q    Q    E  E  E  E     Q    Q    E  E  E  E     Q    Q    E  E  E  E   
---------------0--1--0--|--1------------1--0--1--|--0------------0--------|
------------------------|-------3----3-----------|-------1----1-----3--1--|
--2---------------2-----|-------2----2-----2-----|-------0----0-----0-----|
-------2----2-----2-----|--0---------------------|-------2----2-----2-----|
--0---------------------|------------------------|--3---------------------|
------------------------|------------------------|------------------------|


  Q    Q    E  E  E  E     Q    Q    Q    Q       Q    Q    Q    E  E   
---------------0-----0--|----------------------|-------0---------------|
---------------1-----1--|----------------------|--1-----------------1--|
--2---------------2-----|--2-------------------|-------2----2----2-----|
-------2----2-----2-----|-------2----2----2----|-------2----2----2-----|
--0---------------------|--0-------------------|--0--------------------|
------------------------|----------------------|-----------------------|


  Q    Q    Q    E  E     Q    Q    E  E  E  E     Q    Q    Q    E  E   
-----------------------|-------0----------0-----|-----------------------|
--0--------------------|--1------------1-----1--|--0--------------------|
-------1----1-------1--|-------2----2-----2-----|-------1----1-------2--|
-------2----2----2-----|-------2----2-----2-----|-------2----2----2-----|
-----------------------|--0---------------------|-----------------------|
--4--------------------|------------------------|--4--------------------|


  Q    Q    E  E  E  E     E  E  Q    E  E  E  E     E  E  Q    E  E  E  E   
------------------------|-------------------------|-------------------------|
------------------1-----|-------------------------|--1-------------1--0-----|
--2------------2-----2--|--2----------------2-----|----------------------2--|
-------3----3-----3-----|-----2----------2-----2--|-----3-------------------|
-------3----3-----3-----|--------0----0-----0-----|--------3----3-----3-----|
--1---------------------|--0----------------------|--1----------------------|


  E  E  Q    Q    E  E     Q    H        E  E     Q    H        E  E   
------------------------|-------0--------L-----|----------------------|
--1---------------------|--1----------------1--|--0-------------L--0--|
---------------------2--|-------2--------------|-------1--------------|
-----2------------------|-------2--------------|-------2--------------|
--------0----0----0-----|--0-------------------|----------------------|
--0---------------------|----------------------|--4-------------------|


  Q    H        E  E     Q    H        E  E     Q    H        E  E   
-------0--------L-----|----------------------|-------0--------L-----|
--1----------------1--|--0-------------L--0--|--1----------------1--|
-------2--------------|-------1--------------|-------2--------------|
-------2--------------|-------2--------------|-------2--------------|
--0-------------------|----------------------|--0-------------------|
----------------------|--4-------------------|----------------------|


  Q    H        E  E     H.           E  E     W                 
----------------------|------------------0--|-------------------|
--0-------------L-----|---------------------|-------------------|
-------1-----------2--|--2------------L-----|--2----------------|
-------2--------------|---------------------|--2----------------|
----------------------|--0------------L-----|-------------------|
--4-------------------|---------------------|-------------------|


-------------------||
-------------------||
-------------------||
-------------------||
-------------------||
-------------------||




Duration Legend
---------------
W - whole
H - half
Q - quarter
E - 8th
S - 16th
T - 32nd
X - 64th
. - note dotted
|-n-|  - n-tuplets


Tablature Legend
----------------
L - tied note
x - dead note
g - grace note
(n) - ghost note
> - accentuded note
NH - natural harmonic
AH - artificial harmonic
TH - tapped harmonic
SH - semi harmonic
PH - pitch harmonic
h - hammer on
p - pull off
b - bend
S - shift slide
s - legato slide
/ -  slide into from below or out of upwards
\ -  slide into from above or out of downwards
~ - vibrato
W - wide vibrato
tr - trill
TP - tremolo picking
T - tapping
S - slap
P - pop
< - fade in
^ - brush up
v - brush down

        
Comments

No comments yet