Gametabs
Home
Tabs
Random

Quiet

Average rating: 5.000

3 ratings

Composer:

Tabber:

Style:

Instrument:

Created: January 26, 2010 at 12:00 AM

            Guitar 1

      Q     Q     Q     Q       W                    Q     Q     Q     Q     
E||--------------------17----|-------------------|--------------------16----|
B||--------14----17----------|-------------------|--------13----16----------|
G||--14----------------------|-------------------|--13----------------------|
D||--------------------------|-------------------|--------------------------|
A||--------------------------|-------------------|--------------------------|
E||--------------------------|-------------------|--------------------------|


  W                    Q     Q     Q     Q       W                 
-------------------|--------------------17----|-------------------|
-------------------|--------14----17----------|-------------------|
-------------------|--14----------------------|-------------------|
-------------------|--------------------------|-------------------|
-------------------|--------------------------|-------------------|
-------------------|--------------------------|-------------------|


   Q     Q     Q     Q       W                    Q     Q     Q     Q     
--------------------16----|-------------------|--------------------17----|
--------13----16----------|-------------------|--------14----17----------|
--13----------------------|-------------------|--14----------------------|
--------------------------|-------------------|--------------------------|
--------------------------|-------------------|--------------------------|
--------------------------|-------------------|--------------------------|


  E   E  Q     E  Q     E      Q     Q     Q     Q     
-----17-------17-------17--|--------------------16----|
---------------------------|--------13----16----------|
---------------------------|--13----------------------|
---------------------------|--------------------------|
---------------------------|--------------------------|
---------------------------|--------------------------|


  E   E  Q     E  Q     E      Q     Q     Q     Q     
-----16-------16-------16--|--------------------17----|
---------------------------|--------14----17----------|
---------------------------|--14----------------------|
---------------------------|--------------------------|
---------------------------|--------------------------|
---------------------------|--------------------------|


  E   E  Q     E  Q     E      Q     Q     Q     Q     
-----17-------17-------17--|--------------------16----|
---------------------------|--------13----16----------|
---------------------------|--13----------------------|
---------------------------|--------------------------|
---------------------------|--------------------------|
---------------------------|--------------------------|


  E   E  Q     E  Q     E        Q     Q     Q     Q     
-----16-------16-------16--||---------------------17----|
---------------------------||---------14----17----------|
---------------------------||*--14----------------------|
---------------------------||*--------------------------|
---------------------------||---------------------------|
---------------------------||---------------------------|


  E   E  Q     E  Q     E      Q     Q     Q     Q     
-----17-------17-------17--|--------------------16----|
---------------------------|--------13----16----------|
---------------------------|--13----------------------|
---------------------------|--------------------------|
---------------------------|--------------------------|
---------------------------|--------------------------|


  E   E  Q     E  Q     E      Q     Q     Q     Q     
-----16-------16-------16--|--------------------17----|
---------------------------|--------14----17----------|
---------------------------|--14----------------------|
---------------------------|--------------------------|
---------------------------|--------------------------|
---------------------------|--------------------------|


  E   E  Q     E  Q     E      Q     Q     Q     Q     
-----17-------17-------17--|--------------------16----|
---------------------------|--------13----16----------|
---------------------------|--13----------------------|
---------------------------|--------------------------|
---------------------------|--------------------------|
---------------------------|--------------------------|


  E   E  Q     E  Q     E      Q     Q     Q     Q     
-----16-------16-------16--|--------------------17----|
---------------------------|--------14----17----------|
---------------------------|--14----------------------|
---------------------------|--------------------------|
---------------------------|--------------------------|
---------------------------|--------------------------|


  E   E  Q     E  Q     E      Q     Q     Q     Q     
-----17-------17-------17--|--------------------16----|
---------------------------|--------13----16----------|
---------------------------|--13----------------------|
---------------------------|--------------------------|
---------------------------|--------------------------|
---------------------------|--------------------------|


  E   E  Q     E  Q     E      Q     Q     Q     Q     
-----16-------16-------16--|--------------------17----|
---------------------------|--------14----17----------|
---------------------------|--14----------------------|
---------------------------|--------------------------|
---------------------------|--------------------------|
---------------------------|--------------------------|


  E   E  Q     E  Q     E      Q     Q     Q     Q     
-----17-------17-------17--|--------------------16----|
---------------------------|--------13----16----------|
---------------------------|--13----------------------|
---------------------------|--------------------------|
---------------------------|--------------------------|
---------------------------|--------------------------|


  E   E  Q     E  Q     E      Q     Q     Q     Q     
-----16-------16-------16--|--------------------17----|
---------------------------|--------14----17----------|
---------------------------|--14----------------------|
---------------------------|--------------------------|
---------------------------|--------------------------|
---------------------------|--------------------------|


  E   E  Q     E  Q     E      Q     Q     Q     Q     
-----17-------17-------17--|--------------------16----|
---------------------------|--------13----16----------|
---------------------------|--13----------------------|
---------------------------|--------------------------|
---------------------------|--------------------------|
---------------------------|--------------------------|


  E   E  Q     E  Q     E      Q     Q     Q     Q     
-----16-------16-------16--|--------------------17----|
---------------------------|--------14----17----------|
---------------------------|--14----------------------|
---------------------------|--------------------------|
---------------------------|--------------------------|
---------------------------|--------------------------|


  E   E  Q     E  Q     E      Q     Q     Q     Q     
-----17-------17-------17--|--------------------16----|
---------------------------|--------13----16----------|
---------------------------|--13----------------------|
---------------------------|--------------------------|
---------------------------|--------------------------|
---------------------------|--------------------------|


  E   E  Q     E  Q     E   5x
-----16-------16-------16---||
----------------------------||
---------------------------*||
---------------------------*||
----------------------------||
----------------------------||




Duration Legend
---------------
W - whole
H - half
Q - quarter
E - 8th


Guitar 2

D||-------|-------|-------|-------|-------|-------|-------|-------|-------|
A||-------|-------|-------|-------|-------|-------|-------|-------|-------|
F||-------|-------|-------|-------|-------|-------|-------|-------|-------|
C||-------|-------|-------|-------|-------|-------|-------|-------|-------|
G||-------|-------|-------|-------|-------|-------|-------|-------|-------|
D||-------|-------|-------|-------|-------|-------|-------|-------|-------|


-------|-------|-------|-------|-------|-------|-------|
-------|-------|-------|-------|-------|-------|-------|
-------|-------|-------|-------|-------|-------|-------|
-------|-------|-------|-------|-------|-------|-------|
-------|-------|-------|-------|-------|-------|-------|
-------|-------|-------|-------|-------|-------|-------|


    Q    Q    Q    Q       Q    Q    Q    Q       Q    Q    Q    Q     
|-----------------------|----------------------|----------------------|
|-----------------------|----------------------|----------------------|
|*----------------------|----------------------|----------------------|
|*----------------------|--3----3----3----3----|----------------------|
|---2----2----2----2----|----------------------|--1----1----1----1----|
|-----------------------|----------------------|----------------------|


  Q    Q    Q    Q       Q    Q    Q    Q       Q    Q    Q    Q     
----------------------|----------------------|----------------------|
----------------------|----------------------|----------------------|
----------------------|----------------------|----------------------|
----------------------|----------------------|--3----3----3----3----|
----------------------|--2----2----2----2----|----------------------|
--1----1----1----1----|----------------------|----------------------|


  Q    Q    Q    Q       Q    Q    Q    Q       Q    Q    Q    Q     
----------------------|----------------------|----------------------|
----------------------|----------------------|----------------------|
----------------------|----------------------|----------------------|
----------------------|----------------------|----------------------|
--1----1----1----1----|--1----1----1----1----|--2----2----2----2----|
----------------------|----------------------|----------------------|


  Q    Q    Q    Q       Q    Q    Q    Q       Q    Q    Q    Q     
----------------------|----------------------|----------------------|
----------------------|----------------------|----------------------|
----------------------|----------------------|----------------------|
--3----3----3----3----|----------------------|----------------------|
----------------------|--1----1----1----1----|----------------------|
----------------------|----------------------|--1----1----1----1----|


  Q    Q    Q    Q       Q    Q    Q    Q       Q    Q    Q    Q     
----------------------|----------------------|----------------------|
----------------------|----------------------|----------------------|
----------------------|----------------------|----------------------|
----------------------|--3----3----3----3----|----------------------|
--2----2----2----2----|----------------------|--1----1----1----1----|
----------------------|----------------------|----------------------|


  Q    Q    Q    Q       Q    Q    Q    Q       Q    Q    Q    Q     
----------------------|----------------------|----------------------|
----------------------|----------------------|----------------------|
----------------------|----------------------|----------------------|
----------------------|----------------------|--3----3----3----3----|
--1----1----1----1----|--2----2----2----2----|----------------------|
----------------------|----------------------|----------------------|


  Q    Q    Q    Q       Q    Q    Q    Q       Q    Q    Q    Q     
----------------------|----------------------|----------------------|
----------------------|----------------------|----------------------|
----------------------|----------------------|----------------------|
----------------------|----------------------|----------------------|
--1----1----1----1----|----------------------|--2----2----2----2----|
----------------------|--1----1----1----1----|----------------------|


  Q    Q    Q    Q       Q    Q    Q    Q       Q    Q    Q    Q     5x
----------------------|----------------------|-----------------------||
----------------------|----------------------|-----------------------||
----------------------|----------------------|----------------------*||
--3----3----3----3----|----------------------|----------------------*||
----------------------|--1----1----1----1----|--1----1----1----1-----||
----------------------|----------------------|-----------------------||




Duration Legend
---------------
W - whole
H - half
Q - quarter

Guitar 3

E||-------|-------|-------|-------|-------|-------|-------|-------|-------|
B||-------|-------|-------|-------|-------|-------|-------|-------|-------|
G||-------|-------|-------|-------|-------|-------|-------|-------|-------|
D||-------|-------|-------|-------|-------|-------|-------|-------|-------|
A||-------|-------|-------|-------|-------|-------|-------|-------|-------|
E||-------|-------|-------|-------|-------|-------|-------|-------|-------|


-------|-------|-------|-------|-------|-------|-------||--------|-------|
-------|-------|-------|-------|-------|-------|-------||--------|-------|
-------|-------|-------|-------|-------|-------|-------||*-------|-------|
-------|-------|-------|-------|-------|-------|-------||*-------|-------|
-------|-------|-------|-------|-------|-------|-------||--------|-------|
-------|-------|-------|-------|-------|-------|-------||--------|-------|


-------|-------|-------|-------|-------|-------|
-------|-------|-------|-------|-------|-------|
-------|-------|-------|-------|-------|-------|
-------|-------|-------|-------|-------|-------|
-------|-------|-------|-------|-------|-------|
-------|-------|-------|-------|-------|-------|


  E  E  E   E   E   E   E   E      E   E  E  E  E  E  E  E   
--------------------------------|---------------------------|
--------------------------------|---------------------------|
--------------------------------|---------------------------|
--------6h--7p--6h--7p--6h--7p--|--6h--7--------------------|
--------------------------------|---------------------------|
--------------------------------|---------------------------|


  E  E  E   E   E   E   E   E      E   E  E  E  E  E  E  E   
--------------------------------|---------------------------|
--------------------------------|---------------------------|
--------------------------------|---------------------------|
--------5h--6p--5h--6p--5h--6p--|--5h--6--------------------|
--------------------------------|---------------------------|
--------------------------------|---------------------------|


  E  E  E   E   E   E  E    E      E    E  E  E  E  E  E  E   
--------------------------------|----------------------------|
-----------------------9S--10p--|--9h--10--------------------|
--------------------------------|----------------------------|
--------6h--7p--6h--7-----------|----------------------------|
--------------------------------|----------------------------|
--------------------------------|----------------------------|


  E  E  E   E   E   E   E   E      E   E  E  E  E  E  E  E   
--------------------------------|---------------------------|
--------------------------------|---------------------------|
--------------------------------|---------------------------|
--------5h--6p--5h--6p--5h--6p--|--5h--6--------------------|
--------------------------------|---------------------------|
--------------------------------|---------------------------|


  E  E  E   E   E   E   E   E      E   E  E  E  E  E  E  E   
--------------------------------|---------------------------|
--------------------------------|---------------------------|
--------------------------------|---------------------------|
--------6h--7p--6h--7p--6h--7p--|--6h--7--------------------|
--------------------------------|---------------------------|
--------------------------------|---------------------------|


  E  E  E   E   E   E   E   E      E   E  E  E  E  E  E  E   
--------------------------------|---------------------------|
--------------------------------|---------------------------|
--------------------------------|---------------------------|
--------5h--6p--5h--6p--5h--6p--|--5h--6--------------------|
--------------------------------|---------------------------|
--------------------------------|---------------------------|


  E  E  E   E   E   E   E   E      E   E  E  E  E  E  E  E   
--------------------------------|---------------------------|
--------------------------------|---------------------------|
--------------------------------|---------------------------|
--------6h--7p--6h--7p--6h--7p--|--6h--7--------------------|
--------------------------------|---------------------------|
--------------------------------|---------------------------|


  E  E  E   E   E   E  E   E      E   E  E  E  E  E  E  E   5x
-------------------------------|----------------------------||
-----------------------8S--9p--|--8h--9---------------------||
-------------------------------|---------------------------*||
--------5h--6p--5h--6----------|---------------------------*||
-------------------------------|----------------------------||
-------------------------------|----------------------------||




Duration Legend
---------------
W - whole
H - half
Q - quarter
E - 8th


Tablature Legend
----------------
h - hammer on
p - pull off
S - shift slide

        
Comments

@RexLeRouge (January 27, 2010 at 3:31 PM)

Ahah Great xD