Gametabs
Home
Tabs
Random

Pulse

Average rating: 5.000

9 ratings

Composer:

Tabber:

Style:

Instrument:

Created: February 11, 2013 at 12:00 AM

            Pulse                                       
Cave Story
Daisuke "Pixel" Amaya
JordanVS



      Q    Q    Q    E  E     Q    Q    Q    Q       Q    Q    Q    Q     
E||---0-----------------0--|--3----0---------0----|----------------------|
B||-------------1----3-----|------------3---------|--0--------------0----|
G||*-------2---------------|-------2----5---------|------------0---------|
D||*--3--------------------|--3-------------------|-------2--------------|
A||------------------------|----------------------|--3-------------------|
E||------------------------|----------------------|----------------------|


  Q    Q    Q    Q       Q    Q    Q    E  E     Q    Q    Q    Q     
----------------------|--0-----------------0--|--3----0---------0----|
-----------------0----|------------1----3-----|------------3---------|
--0---------0---------|-------2---------------|-------2----5---------|
-------2--------------|--3--------------------|--3-------------------|
--3-------------------|-----------------------|----------------------|
----------------------|-----------------------|----------------------|


  Q    Q    Q    Q       Q    Q    Q    Q         Q    Q    Q    E  E   
----------------------|-----------------------||-----------------------|
--0--------------0----|-----------------0-----||--1--------------0--1--|
------------0---------|------------0---------*||------------2----------|
-------2--------------|-------2--------------*||--0----3---------------|
--3-------------------|--3--------------------||-----------------------|
----------------------|-----------------------||-----------------------|


  Q    Q    Q    Q       Q    Q    H           Q    Q    H         
----------------------|---------------------|---------------------|
--3----1----0----1----|--0------------------|---------------------|
------------2---------|------------0--------|---------------------|
--0----3--------------|------------0--------|------------0--------|
----------------------|-------2-------------|-------2-------------|
----------------------|--3------------------|--3------------------|


  Q    Q    Q    E  E     Q    Q    Q    Q       Q    Q    Q    Q     
-----------------------|----------------------|----------------------|
--1--------------0--1--|--3----1----0----1----|--0--------------0----|
------------2----------|------------2---------|------------0---------|
--0----3---------------|--0----3--------------|-------2--------------|
-----------------------|----------------------|--2-------------------|
-----------------------|----------------------|----------------------|


                         ^                  
  Q    Q    Q    Q       W                  
----------------------|--0----------------||
--1----0--------------|--1----------------||
------------0---------|--2----------------||
-----------------2----|--3----------------||
----------------------|-------------------||
----------------------|-------------------||




Duration Legend
---------------
W - whole
H - half
Q - quarter
E - 8th


Tablature Legend
----------------
L - tied note
^ - brush up
v - brush down

        
Comments

@xxtazy (November 26, 2014 at 10:12 PM)

Easy to play and sounds really good! https://soundcloud.com/mickegitarr/cave-story-pulse