Gametabs
Home
Tabs
Random

Wicked Child

Average rating: 3.667

3 ratings

Composer:

Tabber:

Style:

Instrument:

Created: November 21, 2014 at 12:00 AM

            Wicked Child


Lead

|--------------------------------|--------------------------------|--------------------------------|
|--------------------------------|--------------------------------|--------------------------------|
|-10-10-10-9-10-12-10-10-10-9-10-|-10-10-10-9-10-12-10-10-10-9-10-|-10-10-10-9-10-12-10-10-10-9-10-|
|--------------------------------|--------------------------------|--------------------------------|
|--------------------------------|--------------------------------|--------------------------------|
|--------------------------------|--------------------------------|--------------------------------|


|--------------------------------|----|-12-11-10-9-|-12-11-10-9-|-12-11-10-9-|-12-11-10-9-|
|--------------------------------|----|------------|------------|------------|------------|
|-10-10-10-9-10-12-10-10-10-9-10-|-10-|------------|------------|------------|------------|
|--------------------------------|----|------------|------------|------------|------------|
|--------------------------------|----|------------|------------|------------|------------|
|--------------------------------|----|------------|------------|------------|------------|


|----------------------------------------------------------------|
|----------------------------------------------------13-------13-|
|-14-13-14-13-14-------14-14-13-14----------14-------------------|
|----------------12-15----------------12-15----12-15----12-15----|
|----------------------------------------------------------------|
|----------------------------------------------------------------|


|----------------------------------------------------------------|
|----------------------------------------------------13-------13-|
|-14-13-14-13-14-------14-14-13-14----------14-------------------|
|----------------12-15----------------12-15----12-15----12-15----|
|----------------------------------------------------------------|
|----------------------------------------------------------------|


|-13-12-|-12----------------|-12----------------|----------------10-|----------------10-|
|-------|----13----13-------|----13----13-------|-------10----10----|-------10----10----|
|-------|-------12----12----|-------12----12----|----10----10-------|----10----10-------|
|-------|----------------14-|----------------14-|-12----------------|-12----------------|
|-------|-------------------|-------------------|-------------------|-------------------|
|-------|-------------------|-------------------|-------------------|-------------------|


|-12----------------|-12----------------|----------------10-|----------------10-|
|----13----13-------|----13----13-------|-------10----10----|-------10----10----|
|-------12----12----|-------12----12----|----10----10-------|----10----10-------|
|----------------14-|----------------14-|-12----------------|-12----------------|
|-------------------|-------------------|-------------------|-------------------|
|-------------------|-------------------|-------------------|-------------------|


|----------13-15-17-|---------12-13-15-|--------10-12-13-|-9-10-12-|
|-------------------|------------------|-----------------|---------|
|-10-12-14----------|-9-10-12----------|-7-9-10----------|---------|
|-------------------|------------------|-----------------|---------|
|-------------------|------------------|-----------------|---------|
|-------------------|------------------|-----------------|---------|


|----------13-15-17-|---------12-13-15-|--------10-12-13-|-9-10-12-|-12-13-15-|
|-------------------|------------------|-----------------|---------|----------|
|-10-12-14----------|-9-10-12----------|-7-9-10----------|---------|----------|
|-------------------|------------------|-----------------|---------|----------|
|-------------------|------------------|-----------------|---------|----------|
|-------------------|------------------|-----------------|---------|----------|


Harmony

|-----------------------------------------------------|-----------------------------------------------------|-----|
|-----------------------------------------------------|-----------------------------------------------------|-----|
|------7---------------------7------------------------|------7---------------------7------------------------|-----|
|-7-10---7-7-7-7-7-7-7-7-7-7---10-8-8-8-8-8-8-8-8-8-8-|-7-10---7-7-7-7-7-7-7-7-7-7---10-8-8-8-8-8-8-8-8-8-8-|-8-8-|
|-----------------------------------------------------|-----------------------------------------------------|-----|
|-----------------------------------------------------|-----------------------------------------------------|-----|


|--------------------|---------------------|--------------------|---------------------|
|-13-12-11-10--------|-13-12-11-10---------|-13-12-11-10--------|-13-12-11-10---------|
|------------------7-|---------------------|------------------7-|---------------------|
|-------------7-10---|-------------7-10----|-------------7-10---|-------------7-10----|
|--------------------|------------------10-|--------------------|------------------10-|
|--------------------|---------------------|--------------------|---------------------|


|-------------------------------------------------------------|----------|
|-------------------------------------------------------------|----------|
|-------------------------------------------------------------|----------|
|-12-12-12-12-12----12-15-12-12-12----12-15----12-15----12-15-|----------|
|----------------12----------------12-------13-------13-------|-13-15-16-|
|-------------------------------------------------------------|----------|


|-------------------------------------------------------------|
|-------------------------------------------------------------|
|-------------------------------------------------------------|
|-12-12-12-12-12----12-15-12-12-12----12-15----12-15----12-15-|
|----------------12----------------12-------13-------13-------|
|-------------------------------------------------------------|


|-------|-12----------------|-12----------------|----------------10-|----------------10-|
|-15-13-|----13----13-------|----13----13-------|-------10----10----|-------10----10----|
|-------|-------12----12----|-------12----12----|----10----10-------|----10----10-------|
|-------|----------------14-|----------------14-|-12----------------|-12----------------|
|-------|-------------------|-------------------|-------------------|-------------------|
|-------|-------------------|-------------------|-------------------|-------------------|


|-12----------------|-12----------------|----------------10-|----------------10-|
|----13----13-------|----13----13-------|-------10----10----|-------10----10----|
|-------12----12----|-------12----12----|----10----10-------|----10----10-------|
|----------------14-|----------------14-|-12----------------|-12----------------|
|-------------------|-------------------|-------------------|-------------------|
|-------------------|-------------------|-------------------|-------------------|


|----------13-15-17-|----------12-13-15-|---------10-12-13-|--------|
|-------------------|-------------------|------------------|--------|
|-------------------|-------------------|------------------|--------|
|-12-14-15----------|-10-12-14----------|-8-10-12----------|-7-9-11-|
|-------------------|-------------------|------------------|--------|
|-------------------|-------------------|------------------|--------|


|----------13-15-17-|----------12-13-15-|---------10-12-13-|--------|----------|
|-------------------|-------------------|------------------|--------|----------|
|-------------------|-------------------|------------------|--------|----------|
|-12-14-15----------|-10-12-14----------|-8-10-12----------|-7-9-11-|-11-12-14-|
|-------------------|-------------------|------------------|--------|----------|
|-------------------|-------------------|------------------|--------|----------|

Bass

|-------------------------|-----|----------------------|----------------------|
|-------------------------|-----|----------------------|----------------------|
|---3-5-5-3-----3-5-5-3---|-----|------------------3-5-|------------------3---|
|-5---------6-5---------6-|-6-6-|-5--5-5--5--5-5-5-----|-5--5-5--5--5-5-5---3-|


|--------------------------------------------------|--------------------------------------------------|
|--------------------------------------------------|--------------------------------------------------|
|----------------------------------------------3-5-|----------------------------------------------3---|
|-5-5-5--5--5--5-5-5--5--5--5-5-5--5--5--5-5-5-----|-5-5-5--5--5--5-5-5--5--5--5-5-5--5--5--5-5-5---3-|


|---7---7---7---7---7---7---7---7-|-----------------------------|-----|---7---7---7---7---7---7---7---7-|
|---------------------------------|---8---8---8---8---8---8---8-|-----|---------------------------------|
|-5---5---5---5---5---5---5---5---|-----------------------------|-3-4-|-5---5---5---5---5---5---5---5---|
|---------------------------------|-6---6---6---6---6---6---6---|-----|---------------------------------|


|-------------------------|-----|---------------|---------------|---------------|---------------|
|---8---8---8---8---8---8-|-----|---------------|---------------|---------------|---------------|
|-------------------------|-----|-3--3-3-3--5-7-|-3--3-3-3--5-7-|-5--5-5-5--7-8-|-5--5-5-5--7-8-|
|-6---6---6---6---6---6---|-6-6-|---------------|---------------|---------------|---------------|


|---------------|---------------|---------------|---------------|---------------|
|---------------|---------------|---------------|---------------|---------------|
|-3--3-3-3--5-7-|-3--3-3-3--5-7-|-5--5-5-5--7-8-|-5--5-5-5--7-8-|-5--5-5-5--7-8-|
|---------------|---------------|---------------|---------------|---------------|


|---------------------------------|---------------------------------|---------------------------------|
|---------------------------------|---------------------------------|---------------------------------|
|-5-5-5-5-5-5-5-5-5-5-5-5-5-5-5-5-|-3-3-3-3-3-3-3-3-3-3-3-3-3-3-3-3-|---------------------------------|
|---------------------------------|---------------------------------|-6-6-6-6-6-6-6-6-6-6-6-6-6-6-6-6-|


|-----------------------------|-----|
|-----------------------------|-----|
|-----------------------------|---4-|
|-5-5-5-5-5-5-5-5-5-5-5-5-5-5-|-7---|


|---------------------------------|---------------------------------|---------------------------------|
|---------------------------------|---------------------------------|---------------------------------|
|-5-5-5-5-5-5-5-5-5-5-5-5-5-5-5-5-|-3-3-3-3-3-3-3-3-3-3-3-3-3-3-3-3-|---------------------------------|
|---------------------------------|---------------------------------|-6-6-6-6-6-6-6-6-6-6-6-6-6-6-6-6-|


|---------------------------------|---------------------------------|
|---------------------------------|---------------------------------|
|---------------------------------|---------------------------------|
|-5-5-5-5-5-5-5-5-5-5-5-5-5-5-5-5-|-5-5-5-5-5-5-5-5-5-5-5-5-5-5-5-5-|
        
Comments

No comments yet