Gametabs
Home
Tabs
Random

Walking On the Edge

Average rating: 3.000

2 ratings

Composer:

Tabber:

Style:

Instrument:

Created: November 21, 2014 at 12:00 AM

            Walking On the Edge


Lead

|----|-------------------------------------------------|---------------------------------------7-6-5-8-9-|
|----|-------------------------------------------------|-5-------5---8-7-----5-------5-7-8-7-8-----------|
|----|-------------------------------------------------|---6-5-6---6-----5-6---6-5-6---------------------|
|----|-10-11-10-11-10-11-10-11-10-11-10-11-10-11-10-11-|-------------------------------------------------|
|----|-------------------------------------------------|-------------------------------------------------|
|----|-------------------------------------------------|-------------------------------------------------|


|-------------9-9-9-12-12-12-12---|----11-12----|----11-12----|-14-16-17-14-16-|---------------|
|------------------------------14-|-14-------14-|-14-------14-|----------------|-9-8-7-6-------|
|-6-6-6-9-9-9---------------------|-------------|-------------|----------------|---------9-8-7-|
|---------------------------------|-------------|-------------|----------------|---------------|
|---------------------------------|-------------|-------------|----------------|---------------|
|---------------------------------|-------------|-------------|----------------|---------------|


Harmony

|----|-------------------------------------------------|---------------------------------------------5-4-|
|----|-------------------------------------------------|-------------------------------4-5-4-5-8-8-7-----|
|----|-------------------------------------------------|-6-------6---5-4-----6-------6-------------------|
|----|-------------------------------------------------|---5-4-5---5-----4-5---5-4-5---------------------|
|----|-3-4-3-4-3-4-3-4-3-4-3-4-3-4-3-4-3-4-3-4-3-4-3-4-|-------------------------------------------------|
|----|-------------------------------------------------|-------------------------------------------------|


|-------------------9-9-9-9---|---------|-----9-------------|-----9-------------|----------------|
|-------------8-8-8---------9-|-9-7---9-|-9-9---8-8-7-----8-|-7-7---7-----7-----|----------------|
|-------6-6-6-----------------|-----9---|-------------9-6---|---------6-6---6-5-|-9-8-7-6--------|
|-7-7-7-----------------------|---------|-------------------|-------------------|---------10-9-8-|
|-----------------------------|---------|-------------------|-------------------|----------------|
|-----------------------------|---------|-------------------|-------------------|----------------|


Bass

|-----------------------------------------------------------------|
|-----------------------------------------------------------------|
|-3-4-3-4-3-4-3-4-3-4-3-4-3-4-3-4-3-4-3-4-3-4-3-4-3-4-3-4-3-4-3-4-|
|-----------------------------------------------------------------|
   (FAST X16)

|---------------------------------|
|---------------------------------|
|-3-4-3-4-3-4-3-4-3-4-3-4-3-4-3-4-|
|---------------------------------|
   (SLOW X8)

|-------------------------------------------------------------------------------------------------|
|-------------------------------------------------------------------------------------------------|
|-3-4-3-4-3-4-3-4-3-4-3-4-3-4-3-4-3-4-3-4-3-4-3-4-3-4-3-4-3-4-3-4-3-4-3-4-3-4-3-4-3-4-3-4-3-4-3-4-|
|-------------------------------------------------------------------------------------------------|
   (FAST X24)

|-------------------------|---6-6---6-6---6-6---6-6---6-6---6-6---6-6---6-6-|
|-2-2-2-5-5-5-2-2-2-5-5-5-|-------------------------------------------------|
|-------------------------|-4-----4-----4-----4-----4-----4-----4----4------|
|-------------------------|-------------------------------------------------|


|-------------------------------------------------|------------------------------------------------|
|---7-7---7-7---7-7---7-7---7-7---7-7---7-7---7-7-|---4-4---4-4---4-4---4-4---4-4---4-4---4-4---4-4|
|-------------------------------------------------|------------------------------------------------|
|-5-----5-----5-----5-----5-----5-----5-----5-----|-2-----2-----2-----2-----2-----2-----2-----2----|


|--------------------------|
|---6-6---6-6---6-6---6-6--|
|--------------------------|
|-4-----4-----4-----4----4-|
        
Comments

No comments yet