Gametabs
Home
Tabs
Random

Walking On the Edge

Average rating: No ratings

Composer:

Tabber:

Style:

Instrument:

Created: April 02, 2011 at 12:00 AM

            Walking on the Edge
Castlevania
Composer: Kinuyo Yamashita
Tabbed by: Bacardibreezer
4/2/11 Updated 9/23/11

Guitar 1

e|--------|--------|--------------------------|--------------------------|
B|--------|--------|--------------------------|--------------------------|
G|--------|--------|--------------------------|--------------------------|
D|--------|--------|--10-11-10-11-10-11-10-11-|-10-11-10-11-10-11-10-11--|
A|--------|--------|--------------------------|--------------------------|
E|--------|--------|--------------------------|--------------------------|

e|------------------------------|-------------------------------|--------7--6--5--8--9-----|
B|--5--------------5-----8--7---|---------5-------------5--7--8-|--7--8--------------------|
G|-----6~----5--6-----6---------|---5--6-----6--5--6------------|--------------------------|
D|------------------------------|-------------------------------|--------------------------|
A|------------------------------|-------------------------------|--------------------------|
E|------------------------------|-------------------------------|--------------------------|

e|-------------------9----9-9-12----12--12-12-----|------|----11-12-----|------|-----11-12---------14-16-17-14---16---|
B|--------------------------------------------14--|--L---|-14--------14-|---L--|--14--------14------------------------|
G|--6---6-6-9----9-9------------------------------|------|--------------|------|--------------------------------------|
D|------------------------------------------------|------|--------------|------|--------------------------------------|
A|------------------------------------------------|------|--------------|------|--------------------------------------|
E|------------------------------------------------|------|--------------|------|--------------------------------------|

e|--------------------|
B|--9-8-7-6-----------|
G|-----------9-8-7----|
D|--------------------|
A|--------------------|
E|--------------------|

Guitar 2

e|--------|-------------------|-------------------|------------------|
B|--------|-------------------|-------------------|------------------|
G|--------|-------------------|-------------------|------------------|
D|--------|-------------------|-------------------|------------------|
A|--------|--3-4-3-4-3-4-3-4--|--3-4-3-4-3-4-3-4--|--3-4-3-4-3-4-3-4-|
E|--------|-------------------|-------------------|------------------|

e|---------------------------|-----------------------------|--------3--3--2--5--4---|
B|---------------------------|-----------------------4-----|--4--5------------------|
G|--6------------6-----5--4--|--------6-----------6-----4--|------------------------|
D|-----5---4--5-----5--------|--4--5-----5--4--5-----------|------------------------|
A|---------------------------|-----------------------------|------------------------|
E|---------------------------|-----------------------------|------------------------|


e|-----------------------------9----9--9-9----|-------------|------9----|----------------|------9------------------------|
B|--------------------8----8-8-------------9--|--9-------9--|--9-9---8--|--8----------8--|--7-7---7-----------7----------|
G|----------6----6-6--------------------------|----11-9-----|-----------|----11--9-------|---------------6-6-----6---5---|
D|--7---7-7-----------------------------------|-------------|-----------|----------11----|-------------------------------|
A|--------------------------------------------|-------------|-----------|----------------|-------------------------------|
E|--------------------------------------------|-------------|-----------|----------------|-------------------------------|

e|--------------------|
B|--5-4-3-2-----------|
G|----------5-4-3-----|
D|--------------------|
A|--------------------|
E|--------------------|


        
Comments

No comments yet