Gametabs
Home
Tabs
Random

Voyager

Average rating: 3.000

2 ratings

Composer:

Tabber:

Style:

Instrument:

Created: November 21, 2014 at 12:00 AM

            Voyager


Lead

|-------------------------|-------------------------|-------------|-12--------------12----|
|-------------------------|-------------------------|----------15-|-----15-13-12-------15-|
|-14-16-17-16-14----14-13-|-14-16-17-16-14----14----|----13-16----|--------------14-------|
|----------------17-------|----------------17----12-|-14----------|-----------------------|
|-------------------------|-------------------------|-------------|-----------------------|
|-------------------------|-------------------------|-------------|-----------------------|


|------------------|----12-------------13-12-------|-------12-------12-------12-------12-------12-----|
|-13---------------|-------15-13-12----------15-13-|----15-------15-------15-------12-------12--------|
|----15-14-12-12---|-14-------------14-------------|-14-------14-------14-------13-------13-------13--|
|---------------16-|-------------------------------|--------------------------------------------------|
|------------------|-------------------------------|--------------------------------------------------|
|------------------|-------------------------------|--------------------------------------------------|



|-------------------------|-12-13-12-13-12-13-12-|-16-17-16-17-16-17-16-17-16-17-|-------|
|-13-15-13-15-13-15-13-15-|----------------------|-------------------------------|-------|
|-------------------------|----------------------|-------------------------------|-------|
|-------------------------|----------------------|-------------------------------|-------|
|-------------------------|----------------------|-------------------------------|-------|
|-------------------------|----------------------|-------------------------------|-5-5-5-|


Harmony

|-------------|-------------|-------------|-------------|
|-------------|-------------|-------------|-------------|
|----------14-|----------14-|----------14-|----------14-|
|-------14----|-------14----|-------14----|-------14----|
|-12-12-------|-12-12-------|-12-12-------|-12-12-------|
|-------------|-------------|-------------|-------------|


|-------------|-------------|-------------|-------------|
|-------------|-------------|-------------|-------------|
|----------14-|----------14-|----------14-|----------14-|
|-------14----|-------14----|-------14----|-------14----|
|-12-12-------|-12-12-------|-12-12-------|-12-12-------|
|-------------|-------------|-------------|-------------|


|----------------|----------------|-------------------|----------------|----------------|
|----------12----|----------------|-------------------|----------------|----------------|
|-------13----14-|-12-------------|-12----------------|----12----------|-14-12----------|
|----14----------|----15-14-12-15-|----15-13-12----12-|-15----15-14-12-|-------15-14----|
|-14-------------|----------------|-------------15----|----------------|-------------15-|
|----------------|----------------|-------------------|----------------|----------------|


|-------12-------12-------12-------12-------12-----|
|----15-------15-------15-------12-------12--------|
|-14-------14-------14-------13-------13-------13--|
|--------------------------------------------------|
|--------------------------------------------------|
|--------------------------------------------------|


|-------------------------------------|----------------------|----------12----------12-------------|
|-------------------------------------|-15-13-15-13-12-------|-15-13-15----15-13-12----15-13-12-13-|
|-14-16-14-16-14-16-14-16-17-16-14-13-|----------------14-13-|-------------------------------------|
|-------------------------------------|----------------------|-------------------------------------|
|-------------------------------------|----------------------|-------------------------------------|
|-------------------------------------|----------------------|-------------------------------------|


|----------|
|----------|
|----------|
|----------|
|----------|
|-12-12-12-|


Bass

|------------|-------------------------------------|-----------------|-----------------|
|-7----------|-7-7-7-7-----------------------------|-----------------|-8--8-8-8-8-8--8-|
|---10-9-8-7-|---------10-10-10-10-9-9-9-9-8-8-7-7-|-8--8-8-8-8-8--8-|-----------------|
|------------|-------------------------------------|-----------------|-----------------|


|-----------------|-----------------|-------|-----------------|-----------------|
|-----------------|-----------------|-------|-----------------|-----------------|
|-6--6-6-6-6-6--6-|-5--5-5-5-5-5--5-|-5-5-5-|-8--8-8-8-8-8--8-|-----------------|
|-----------------|-----------------|-------|-----------------|-8--8-8-8-8-8--8-|


|---------|---------|---------|---------|---------|---------|---------|---------|
|---------|---------|---------|---------|---------|---------|---------|---------|
|-7-7-7-7-|-7-7-7-7-|-7-7-7-7-|-7-7-7-7-|-7-7-7-7-|-7-7-7-7-|-7-7-7-7-|-7-7-7---|
|---------|---------|---------|---------|---------|---------|---------|---------|


|--------------7-|--------------7-|-------------------------------------|
|-7--------6-9---|-7--------6-9---|-7-7-7-7-----------------------------|
|---10-8-7-------|---10-8-7-------|---------10-10-10-10-8-8-8-8-7-7-7-7-|
|----------------|----------------|-------------------------------------|


|-----------------------------------------|---------------------------------|---------|
|-7-7-7-7---------------------------------|-7---6---7---6---7---6---7---6---|-7-7-7-7-|
|---------10-10-10-10-8-8-8-8-7-7-7-7-7-7-|---7---7---7---7---7---7---7---7-|---------|
|-----------------------------------------|---------------------------------|---------|
        
Comments

No comments yet