Gametabs
Home
Tabs
Random

Vampire Killer

Average rating: 5.000

1 ratings

Composer:

Tabber:

Style:

Instrument:

Created: September 30, 2007 at 12:00 AM

            Staff-7
     S S S S S E.  S S S S S S S S    S S S S S E.  S S S S S S S S
G||--------------------------------|--------------------------------|
D||--------------------------------|--------------------------------|
A||--------------------------------|----------1---------3-----------|
E||--2---2-2-0-----2---2-2-0---2-2-|--2---2-2-------2-2-----0-0-0---|

  S S S S S E.  S S S S S S S S    S S S S S E.  S S S S S S S S
--------------------------------|--------------------------------|
--------------------------------|--------------------------------|
--------------------------------|----------1---------3-----------|
--2---2-2-0-----2---2-2-0---2-2-|--2---2-2-------2-2-----0-0-0---|

  S S S S S E.  S S S S S S S S    S S S S S E.  S S S S S S S S
--------------------------------|--------------------------------|
--------------------------------|--------------------------------|
--------------------------------|----------1---------1---1---1-1-|
--2---2-2-0-----2---2-2-0---2-2-|--2---2-2-------2-2-------------|

  S S S S S E.  S S S S S S S S    S S S S S E.  S S S S S S S S
--------------------------------|--------------------------------|
--------------------------------|--------------------------------|
--------------------------------|----------1---------1---1---1-1-|
--2---2-2-0-----2---2-2-0---2-2-|--2---2-2-------2-2-------------|

  H        H           H        H           H        H
--------------------|--------------------|--------------------|
--------------------|--------------------|--------------------|
-----------5--------|--4--------5--------|-----------5--------|
--2-----------------|--------------------|--2-----------------|

  H        H           S S S H        E.  S S    E  E  E  S S E  E  E   S  S
--------------------|-------------------------|------------------------------|
--------------------|-------------------------|------------------------------|
--4--------0--------|--5-5-8-5--------L---5-8-|-----------8-8----------10-10-|
--------------------|-------------------------|--6--6---------8--8-----------|

  S S S H        E.  S S    E  E  E  S S E  E  S E.
-------------------------|---------------------------||
-------------------------|---------------------------||
--5-5-8-5--------L---5-8-|-----------8-8-------0-----||
-------------------------|--6--6---------8-------8---||

Duration Legend
---------------
W - whole
H - half
Q - quarter
E - 8th
S - 16th
T - 32nd
X - 64th
. - note dotted
|-n-|  - n-tuplets

        
Comments

@Anonymous (October 27, 2007 at 12:43 AM)

What does the L mean in your tab?